Log in

One click and you are in

Login with Facebook Login with Google

Why sign up and log in

Guitar Tabs Explorer
Alan Walker guitar tabs for Faded (Ver. 4)

Guitar tabs

Tuning: Standard (E A D G B E)



Intro:

e|--------------------0-----5-----5-----5-----3-------0----0----0----0-----------0-----|
B|--1-----1-----1----------------------------------------------------------0-----------|
G|------------------------------------------------------0----0----0-----0--------------|
D|-----2-----2-----2-----2---------------------------------2------ --2---------0------0|
A|--0-----3-----0-----3--------3-----3-----3-----3----3---------3--------------2-------|
E|--------------------------1-----1-----1-----1---------------------------3------------|
Verse:
e|--------0-----------0--------------------------------------0---------------0---------|
B|--0----------0----------------------1-1------1------1--3----------1-1----------------|
G|--------------------------2--------------2-------2-------------2--------0------------|
D|-----0-----0-----0----0--------------------------------------------------------------|
A|---------------------------------0-----------0---------------------------------------|
E|--3-----2-----3-----2--------------------------------------1------------0------------|

e|--------------------------------------------------------------------0----------3--0--|
B|-----------1---1-1--3--0---------1--0------1----1-1-----1-----1--3--------1-1--------|
G|--------0-----------------0-------------2------------2-----2-----------2-------------|
D|-----2-----------------------0-------------------------------------------------------|
A|--3-------------------------------------------0---------0----------------------------|
E|-----------------------3------------3-------------------------------1----------0-----|

e|------------------------------------0-0-0--0--------------------------------0--0--0--|
B|-----------1---1-1--3-----------0---------------1---------1---------1----------------|
G|--------0--------------------0----------------2---2-----2---2-----2---2--------------|
D|-----2--------------------0----------------------------------------------------------|
A|--3----------------------------------------0---------0-------------------------------|
E|------------------------3--------------------------------------1---------1-----1-----|

e|--0-------------------------------0-0-0--0------------------0------------------------|
B|-------1-----------1-----0--------------------1--1h3--3--3-----3--1-1----------------|
G|----------0-----------0-----0---------------2----------------------------------------|
D|-----2----------2--------------------------------------------------------------------|
A|--3----------3---------------------------0-------------------------------------------|
E|-------------------------3-----3-------------------------------1---------------------|

e|-0-0-0--0----------------------------------------------------------------------------|
B|--------------1--1--1/3--0--0--0h1---------------------------------------------------|
G|-----------0-------------------------------------------------------------------------|
D|-------------------------------------------------------------------------------------|
A|--------3----------------------------------------------------------------------------|
E|-------------------------3-----------------------------------------------------------|

Chorus:
e|-0-0-0--0-----x----------x------------x-----------3--3--0------x-----------3--3--0---|
B|--------------x----------x--1---------1--------1--1------------1-----------1---------|
G|-----------2--x--2----2--x-----0h1-0--x--0--------x--------0---x--0-----0--x---------|
D|--------------x----------x------------x-----------x------------2-----------2---------|
A|--------0-----x-----0----x------------x-----------x-----3------3-----3-----3---------|
E|--------------x----------x-----1------x-----1-----x------------x-----------x---------|

e|---------3---------------------------------------------------------------------------|
B|---------1--3------------------------------------------------------------------------|
G|-----0---x---------------------------------------------------------------------------|
D|---------x---------------------------------------------------------------------------|
A|---------2---------------------------------------------------------------------------|
E|--3------3---------------------------------------------------------------------------|

e|-0-0-0--0-----x----------x------0--------1-----------1--3--0--3---x--3--x--3--x--3--0-----1|
B|--------------x----------x----3----------1-----------1------------1-----1-----1--------3---|
G|-----------2--x--2----2--x--2---------2--2--2-----2--2------------x-----x-----x------------|
D|--------------x----------x---------3-----3-----3-----3------------2-----2-----2------------|
A|--------0-----x-----0----x---------------x-----------x-----3------3-----3-----3------------|
E|--------------x----------x---------------x-----------x------------x-----x-----x------------|

e|--------1-----1--0-------------------------------------------------------------------|
B|-----3--3--3-------------------------------------------------------------------------|
G|--------x----------------------------------------------------------------------------|
D|--------x----------------------------------------------------------------------------|
A|--------x----------------------------------------------------------------------------|
E|--3-----3----------------------------------------------------------------------------|

e|-------x-----------x-----x-----1--------x-----------x-----------M--------------------|
B|-------1-----------1-----1--------------1-----------1-----------x--------------------|
G|----2--2--2-----2--2--2--2--2--------0--x--0-----0--x--0-----0--x--0-----------------|
D|-------2-----------2-----3--------------2-----------2-----------x--------------------|
A|--0----x-----0-----x--3--3--------3-----3-----3-----3-----------x--------------------|
E|-------x-----------x-----1--------------x-----------x-----3-----3-----3--------------|


Verse:
e|-----------------------------------------------------------0---------------0---------|
B|------------------------------------1-1------1------1--3----------1-1----------------|
G|-----------------------------------------2-------2-------------2--------0------------|
D|-------------------------------------------------------------------------------------|
A|---------------------------------0-----------0---------------------------------------|
E|-----------------------------------------------------------1------------0------------|

e|--------------------------------------------------------------------0----------3--0--|
B|-----------1---1-1--3--0---------1--0------1----1-1-----1-----1--3--------1-1--------|
G|--------0-----------------0-------------2------------2-----2-----------2-------------|
D|-----2-----------------------0-------------------------------------------------------|
A|--3-------------------------------------------0---------0----------------------------|
E|-----------------------3------------3-------------------------------1----------0-----|

e|------------------------------------0-0-0--0--------------------------------0--0--0--|
B|-----------1---1-1--3-----------0---------------1---------1---------1----------------|
G|--------0--------------------0----------------2---2-----2---2-----2---2--------------|
D|-----2--------------------0----------------------------------------------------------|
A|--3----------------------------------------0---------0-------------------------------|
E|------------------------3--------------------------------------1---------1-----1-----|

e|--0-------------------------------0-0-0--0------------------0------------------------|
B|-------1-----------1-----0--------------------1--1h3--3--3-----3--1-1----------------|
G|----------0-----------0-----0---------------2----------------------------------------|
D|-----2----------2--------------------------------------------------------------------|
A|--3----------3---------------------------0-------------------------------------------|
E|-------------------------3-----3-------------------------------1---------------------|

e|-0-0-0--0----------------------------------------------------------------------------|
B|--------------1--1--1/3--0--0--0h1---------------------------------------------------|
G|-----------0-------------------------------------------------------------------------|
D|-------------------------------------------------------------------------------------|
A|--------3----------------------------------------------------------------------------|
E|-------------------------3-----------------------------------------------------------|


Chorus:
e|-0-0-0--0-----x----------x------------x-----------3--3--0------x-----------3--3--0---|
B|--------------x----------x--1---------1--------1--1------------1-----------1---------|
G|-----------2--x--2----2--x-----0h1-0--x--0--------x--------0---x--0-----0--x---------|
D|--------------x----------x------------x-----------x------------2-----------2---------|
A|--------0-----x-----0----x------------x-----------x-----3------3-----3-----3---------|
E|--------------x----------x-----1------x-----1-----x------------x-----------x---------|

e|---------3---------------------------------------------------------------------------|
B|---------1--3------------------------------------------------------------------------|
G|-----0---x---------------------------------------------------------------------------|
D|---------x---------------------------------------------------------------------------|
A|---------2---------------------------------------------------------------------------|
E|--3------3---------------------------------------------------------------------------|

e|-0-0-0--0-----x----------x------0--------1-----------1--3--0--3---x--3--x--3--x--3--0-----1|
B|--------------x----------x----3----------1-----------1------------1-----1-----1--------3---|
G|-----------2--x--2----2--x--2---------2--2--2-----2--2------------x-----x-----x------------|
D|--------------x----------x---------3-----3-----3-----3------------2-----2-----2------------|
A|--------0-----x-----0----x---------------x-----------x-----3------3-----3-----3------------|
E|--------------x----------x---------------x-----------x------------x-----x-----x------------|

e|--------1-----1--0--------------------------------------------------------------|
B|-----3--3--3---------------------------------------------------------------------|
G|--------x-------------------------------------------------------------------------|
D|--------x-----------------------------------------------------------------------------|
A|--------x----------------------------------------------------------------------------|
E|--3-----3-----------------------------------------------------------------------|

e|-------x-----------x-----x-----1--------x-----------x-----------M--------------------|
B|-------1-----------1-----1--------------1-----------1-----------x--------------------|
G|----2--2--2-----2--2--2--2--2--------0--x--0-----0--x--0-----0--x--0-----------------|
D|-------2-----------2-----3--------------2-----------2-----------x--------------------|
A|--0----x-----0-----x--3--3--------3-----3-----3-----3-----------x--------------------|
E|-------x-----------x-----1--------------x-----------x-----3-----3-----3--------------|


Outro:
e|--------------------0-----5-----5-----5-----3------ 0--- 0----0----0-----------0-----|
B|--1-----1-----1---------------------------------------------------------0------------|
G|------------------------------------------------------0----0----0-----0--------------|
D|-----2-----2-----2-----2---------------------------------2------ --2---------0----- 0|
A|--0-----3-----0-----3--------3-----3-----3-----3----3---------3--------------2-------|
E|--------------------------1-----1-----1-----1---------------------------3------------|

e|--------0-----------0----------------------------------------------------------------|
B|--0----------0-----------------------------------------------------------------------|
G|--------------------------2----------------------------------------------------------|
D|-----0-----0-----0----0--------------------------------------------------------------|
A|-------------------------------------------------------------------------------------|
E|--2-----3-----2----------------------------------------------------------------------|

When you see x's in the chorus, it symbolises a slap/strum, where you slap and strum at the same time

Other versions of Faded

FadedChords
Faded (Ver. 2)Chords
Faded ukuleleChords
Faded ukulele (Ver. 2)Chords
Faded (Ver. 2)Tabs
Faded (Ver. 3) - introTabs
Faded - introTabs
Faded - soloTabs
Faded arash versionTabs

↓ Add and view comments below ↓

What do you think about this song and these tabs?

Add your comments, questions, rant or a thumbs up below.

Almost there ...

Sign in to get your own page with links to favourite songs and more. You are just one click away...

Login with Facebook Login with Google