Search tabs and chords

Browse bands and artists

A B C D E F G H I J K L M N O P Q R S T U V W X Y Z #

Log in

[ Register here | Forgot password ]

Guitar Tabs Explorer
Print

Fade tab by Alan Walker

Guitar tabs

  • Tuning: Standard
e|-2-2-2-2/6--6/11-11-11-11--9/6-6-6-6-6------------------------------------------------------|
B|--------------------------------------6-6-6-6-----------------------------------------------|
G|--------------------------------------------------------------------------------------------|
D|--------------------------------------------------------------------------------------------|
A|--------------------------------------------------------------------------------------------|
E|--------------------------------------------------------------------------------------------|


e|-2-2-2-2/6--6/11-11-11-11--9/6-6-6-6-6------------------------------------------------------|
B|--------------------------------------6--6--6--6--6--6--6-6-6-6-----------------------------|
G|--------------------------------------------------------------------------------------------|
D|--------------------------------------------------------------------------------------------|
A|--------------------------------------------------------------------------------------------|
E|--------------------------------------------------------------------------------------------|



e|-2-2-2-2-2-2--6-6-6-6/11--11-11-11-11-11-11--9-9--6--6--6--6--6--6--6-6-6-6-----------------|
B|---------------------------------------------------------------------------6-6-6-6-6-6-6-6--|
G|--------------------------------------------------------------------------------------------|
D|--------------------------------------------------------------------------------------------|
A|--------------------------------------------------------------------------------------------|
E|--------------------------------------------------------------------------------------------|



e|-2-2-2-2--6-6--14-14-13-13--11-11-11--9-9-9--4-4--6-6-6-6--9-7-6-4-2-4--4-4-4-4-------------|
B|--------------------------------------------------------------------------------------------|
G|--------------------------------------------------------------------------------------------|
D|--------------------------------------------------------------------------------------------|
A|--------------------------------------------------------------------------------------------|
E|--------------------------------------------------------------------------------------------|


e|-4-4--1-1--2-2-2-2--6-6--14-14-13-13--11-11-11--9-9-9--4-4--6-6-6-6--9-7-6-4-1--------------|
B|--------------------------------------------------------------------------------------------|
G|--------------------------------------------------------------------------------------------|
D|--------------------------------------------------------------------------------------------|
A|--------------------------------------------------------------------------------------------|
E|--------------------------------------------------------------------------------------------|



e|-2-2--4--2-2-2-2-2--6-6--14-14-13-13--11-11-11--9-9-9--4-4--6-6-6-6--9-7-6-4-1-4--4-4-4-4---|
B|--------------------------------------------------------------------------------------------|
G|--------------------------------------------------------------------------------------------|
D|--------------------------------------------------------------------------------------------|
A|--------------------------------------------------------------------------------------------|
E|--------------------------------------------------------------------------------------------|



e|-4-4--1-1--2-2-2-2--6-6--14-14-13-13--11-11-11--9-9-9--4-4--6-6-6-6--9-7-6-4-1-4--4-4-4-4---|
B|--------------------------------------------------------------------------------------------|
G|--------------------------------------------------------------------------------------------|
D|--------------------------------------------------------------------------------------------|
A|--------------------------------------------------------------------------------------------|
E|--------------------------------------------------------------------------------------------|


e|-2-2--4--2-2-2-2-2--6-6--14-14-13-13--11-11-11--9-9-9--4-4--6-6-6-6--9-7-6-4-1-4--4-4-4-4---|
B|--------------------------------------------------------------------------------------------|
G|--------------------------------------------------------------------------------------------|
D|--------------------------------------------------------------------------------------------|
A|--------------------------------------------------------------------------------------------|
E|--------------------------------------------------------------------------------------------|


e|-4-4--1-1--2-2-2-2--6-6--14-14-13-13--11-11-11--9-9-9--4-4--6-6-6-6--9-7-6-4-1-4--4-4-4-4---|
B|--------------------------------------------------------------------------------------------|
G|--------------------------------------------------------------------------------------------|
D|--------------------------------------------------------------------------------------------|
A|--------------------------------------------------------------------------------------------|
E|--------------------------------------------------------------------------------------------|



e|-2-2--4--2-2-2-2-2--6-6--14-14-13-13--11-11-11--9-9-9--4-4--6-6-6-6--9-7-6-4-1-4--4-4-4-4---|
B|--------------------------------------------------------------------------------------------|
G|--------------------------------------------------------------------------------------------|
D|--------------------------------------------------------------------------------------------|
A|--------------------------------------------------------------------------------------------|
E|--------------------------------------------------------------------------------------------|


e|-4-4--1-1--2-2-2-2--6-6--14-14-13-13--11-11-11--9-9-9--4-4--6-6-6-6--9-7-6-4-1-4--4-4-4-4---|
B|--------------------------------------------------------------------------------------------|
G|--------------------------------------------------------------------------------------------|
D|--------------------------------------------------------------------------------------------|
A|--------------------------------------------------------------------------------------------|
E|--------------------------------------------------------------------------------------------|



e|-2-2--4--2---2---6--13--11---9---4---6---9-7-6-4-2-1--1---4---1---2-------------------------|
B|--------------------------------------------------------------------------------------------|
G|--------------------------------------------------------------------------------------------|
D|--------------------------------------------------------------------------------------------|
A|--------------------------------------------------------------------------------------------|
E|--------------------------------------------------------------------------------------------|

| /   slide up
|    slide down
| h   hammer-on
| p   pull-off
| ~   vibrato
| +   harmonic
| x   Mute note
| B   Bend
| pb  Pre-bend
| br  Bend release
| pbr Pre-bend release
| brb Bend release bend

Other versions of Fade

FadedChords
Faded (Ver. 2)Chords
Faded ukuleleChords
Fade - introTabs
Faded (Ver. 2)Tabs
Faded (Ver. 3) - introTabs
Faded - introTabs
Faded - soloTabs

Comments