Search tabs and chords

Search for song, artist or band

Log in

One click and you are in

Login with Facebook Login with Google

Why sign up and log in

Guitar Tabs Explorer
Alan Walker guitar tabs for Fade

Intro

-------------------------------------------------------------------
               FADE - Alan Walker (NCS Release)
-------------------------------------------------------------------

Tuning: Standard

Capo: 4th fret


e|-------------------------2-----|-7-------7-------7-------5-----|
B|-3-------3-------3-------------|---------0---------------------|
G|-------------------------------|-------------------------------|
D|-----4-------4-------4-------4-|-----0-------0-------0-------0-|
A|-2---------------2-------------|-------------------------------|
E|-------------------------------|-3---------------3-------------|


e|-2-------2-------2-------2-----|-------------------------------|
B|-------------------------------|-2-------2-------2-------2-----|
G|-----2-------2-------2-------2-|-------------------------------|
D|-0---------------0-------------|-----2-------2-------2-------2-|
A|-------------------------------|-0---------------0-------------|

Other versions of Fade

FadedChords
Faded (Ver. 2)Chords
Faded ukuleleChords
FadeTabs
Faded (Ver. 2)Tabs
Faded (Ver. 3) - introTabs
Faded - introTabs
Faded - soloTabs

Almost there ...

Sign in to get your own page with links to favourite songs and more. You are just one click away...

Login with Facebook Login with Google