Log in

One click and you are in

Login with Facebook Login with Google

Why sign up and log in

Guitar Tabs Explorer
Alan Walker guitar tabs for Darkside

Guitar tabs

  • Capo on 3rd
Difficulty: Advanced


NOTE! The tuning is FADGBe.
Intro:

e|--------------------------------------------------------------------------------|
B|---------------0---0-----------------0---0--------------------------------------|
G|-3/9-8\-5---5\-0-----2-3/9-8\-5---5\-0-----0h2-3/9-8\---------------------------|
D|--------5-5------0------------5-5------0----------------------------------------|
A|--------0---------------------0-------------------------------------------------|
E|---------------2-----0---------------2-----0------------------------------------|


Verse:

e|-------0-----------------------0-----------------0-----------------------0------|
B|---1-3---0-----------------1-3---0-----------1-3---0-----------------1-3---0----|
G|---2-----0-----4/5---------2-----0---4/5-----2-----0-----4/5---------2-----0----|
D|---2---------7-----0h2-0---2-------5---------2---------7-----0h2-0---2-------5--|
A|-0-----------7-----3-----0-----------------0-----------7-----3-----0------------|
E|---------2-0---------------------2-------0---------2-0---------------------2----|

e|--------------------------------------------------------------------------------|
B|--------------------------------------------------------------------------------|
G|-4/5----------------------------------------------------------------------------|
D|--------------------------------------------------------------------------------|
A|--------------------------------------------------------------------------------|
E|-----0--------------------------------------------------------------------------|


Chorus:
                                                               O        O       O
e|---x-----------x-----x-------x---x-----------x-----x-------x---0-2-3-----x------|
B|-1-1-1-1-3-3/5-x-1---3/6-5-3-1-1-1-1-1-3-3/5-x-1---3/6-5-3-1---1-x-----0-1-3----|
G|-2-2---2-------x---2-x-----0-0-2-2---2-------x---2-x-----0-0---2-x-----0-0-0----|
D|-2-x-----------x---2-x-------x-2-x-----------x---2-x-------x---2-x-------x------|
A|-0-x-----------x-----x-----3-x-0-x-----------x-----x-----3-x-0---x-------x------|
E|---x---2-------x---0-x-------x---x---2-------x---0-x-------x-----x---2---x---0--|
         O      O       O               O       O     O         O               O
e|---x--------x---0---0-0-0-2-2h3-x-------3/5-3-0-----0---0-0-0-2-2h3-x-------3/5-|
B|-5-7-8-10-8-7-5-1---x---0-------x-0-1---x-------3p1-1---x---0-------x-0-1---x---|
G|---x---9----x---2---x---0-------x---0---x-----------2---x---0-------x---0---x---|
D|---x--------x---2---x-----------x-------x-----------2---x-----------x-------x---|
A|---x--------x---0-0-x-----------x-------x-----3-----0-0-x-----------x-------x---|
E|---x---7----x-------x---2-------x---0-0-x---------------x---2-------x---0-0-x---|
     O  O       O               O       O     O                 O       O        O
e|-3-0---x-0---0-0-0-2-2h3-x-------3/5-3-0---x---0-2-3---x-------x--------x---0---|
B|-------3-1---x---0-------x-0-1---x---------3---1-x---0-1-3---5-7-8-10-8-7-5-1---|
G|-------x-2---x---0-------x---0---x---------x---2-x---0-0-0-----x---9----x---2---|
D|-------x-2---x-----------x-------x---------x---2-x-----x-------x--------x---2---|
A|---3-3-x-0-0-x-----------x-------x-----3-3-x-0---x-----x-------x--------x---0-0-|
E|-------x-----x---2-------x---0-0-x---------x-----x---2-x---0---x---7----x-------|
       O        O       O
e|-0-0-0-2-2h3-x-------3/5-3-0---x------------------------------------------------|
B|-x---0-------x-0-1---x---------3------------------------------------------------|
G|-x---0-------x---0---x---------x------------------------------------------------|
D|-x-----------x-------x---------x------------------------------------------------|
A|-x-----------x-------x-----3-3-x------------------------------------------------|
E|-x---2-------x---0-0-x---------x------------------------------------------------|

Verse:

   O   O   O O O   O    O   O O   O   O O       O + - + O + - + O   O   O O O   O
e|-------0--------------------------0-------------------------------0-------------|
B|---1-3---0--------------------1-3---0-------------------------1-3---0-----------|
G|---2-----0-------4/5----------2-----0---4/5-------------------2-----0-------4/5-|
D|---2-----------7------0h2-0---2-------5-----------------------2-----------7-----|
A|-0-------------7------3-----0-------------------------------0-------------7-----|
E|---------2---0----------------------2-------0-----------------------2---0-------|

   O   O O   O   O O    O       O
e|-------------0-----------x-*-x---x-*-x------------------------------------------|
B|---------1-3---0---------x-*-x---x-*-x------------------------------------------|
G|---------2-----0---4/5---x-*-x---x-*-x------------------------------------------|
D|-0h2-0---2-------5-------x-*-x---x-*-x------------------------------------------|
A|-3-----0-----------------x-*-x---x-*-x------------------------------------------|
E|---------------2-------0-x-*-x---x-*-x------------------------------------------|


Chorus:
                                                               O        O       O
e|---x-----------x-----x-------x---x-----------x-----x-------x---0-2-3-----x------|
B|-1-1-1-1-3-3/5-x-1---3/6-5-3-1-1-1-1-1-3-3/5-x-1---3/6-5-3-1---1-x-----0-1-3----|
G|-2-2---2-------x---2-x-----0-0-2-2---2-------x---2-x-----0-0---2-x-----0-0-0----|
D|-2-x-----------x---2-x-------x-2-x-----------x---2-x-------x---2-x-------x------|
A|-0-x-----------x-----x-----3-x-0-x-----------x-----x-----3-x-0---x-------x------|
E|---x---2-------x---0-x-------x---x---2-------x---0-x-------x-----x---2---x---0--|
         O      O       O               O       O     O         O               O
e|---x--------x---0---0-0-0-2-2h3-x-------3/5-3-0-----0---0-0-0-2-2h3-x-------3/5-|
B|-5-7-8-10-8-7-5-1---x---0-------x-0-1---x-------3p1-1---x---0-------x-0-1---x---|
G|---x---9----x---2---x---0-------x---0---x-----------2---x---0-------x---0---x---|
D|---x--------x---2---x-----------x-------x-----------2---x-----------x-------x---|
A|---x--------x---0-0-x-----------x-------x-----3-----0-0-x-----------x-------x---|
E|---x---7----x-------x---2-------x---0-0-x---------------x---2-------x---0-0-x---|
     O  O       O               O       O     O                 O       O        O
e|-3-0---x-0---0-0-0-2-2h3-x-------3/5-3-0---x---0-2-3---x-------x--------x---0---|
B|-------3-1---x---0-------x-0-1---x---------3---1-x---0-1-3---5-7-8-10-8-7-5-1---|
G|-------x-2---x---0-------x---0---x---------x---2-x---0-0-0-----x---9----x---2---|
D|-------x-2---x-----------x-------x---------x---2-x-----x-------x--------x---2---|
A|---3-3-x-0-0-x-----------x-------x-----3-3-x-0---x-----x-------x--------x---0-0-|
E|-------x-----x---2-------x---0-0-x---------x-----x---2-x---0---x---7----x-------|
       O        O       O
e|-0-0-0-2-2h3-x-------3/5-3-0---x---0:------------------------------------------|
B|-x---0-------x-0-1---x---------3p1-1:------------------------------------------|
G|-x---0-------x---0---x---------x---2:------------------------------------------|
D|-x-----------x-------x---------x---2:------------------------------------------|
A|-x-----------x-------x-----3-3-x---0:------------------------------------------|
E|-x---2-------x---0-0-x---------x------------------------------------------------|

*****************************
O = Wrist bump
X = slap strings
* = fret tap
+ = tap bottom side of guitar
- = tap top side of guitar
 : = strum
\ = slide down
/ = slide up
h = hammer on
*****************************

Other versions of Darkside

DarksideChords

↓ Add and view comments below ↓

What do you think about this song and these tabs?

Add your comments, questions, rant or a thumbs up below.

Almost there ...

Sign in to get your own page with links to favourite songs and more. You are just one click away...

Login with Facebook Login with Google