Search tabs and chords

Search for song, artist or band

Log in

One click and you are in

Login with Facebook Login with Google

Why sign up and log in

Guitar Tabs Explorer
Alan Walker guitar tabs for All falls down

Guitar tabs

Verse:
e|---0--------------0-----------------------------0--------------------------|
B|------1--------------1--0-----------0-0--1-1--3---1------------------------|
G|---------2-----------------------------------------------------------------|
D|---------------2---------------2--------------0----------------------------|
A|------------0---------------2------------3--------0------------------------|
E|---------------------------------------------------------------------------|

e|---0--------------0-----------------------------0--------------------------|
B|------1--------------1--0-----------0-0--1-1--3---1------------------------|
G|---------2-----------------------------------------------------------------|
D|---------------2---------------2--------------0----------------------------|
A|------------0---------------2------------3--------0------------------------|
E|---------------------------------------------------------------------------|
e|-----0--1-1-1--0-------------0-0-----0-------------------------------------|
B|--3---------------0-0--1--3-------3-----1----------------------------------|
G|---------------------------------------------------------------------------|
D|--------0---0---------------------0----------------------------------------|
A|------------------2----3-----3----------0----------------------------------|
E|---------------------------------------------------------------------------|

e|---0-----------------------------------------------------------------------|
B|------1---------------1--0--0--0--0--1-------------------------------------|
G|---------2---------2-------------------------------------------------------|
D|---------------2-----------------------------------------------------------|
A|------------0------------2-----------3-------------------------------------|
E|---------------------------------------------------------------------------|

e|---0--------------0-----------------------------0--------------------------|
B|------1--------------1--0-----------0-0--1-1--3---1------------------------|
G|---------2-----------------------------------------------------------------|
D|---------------2---------------2--------------0----------------------------|
A|------------0---------------2------------3--------0------------------------|
E|---------------------------------------------------------------------------|

e|---0--------------0-----------------------------0--------------------------|
B|------1--------------1--0-----------0-0--1-1--3---1------------------------|
G|---------2-----------------------------------------------------------------|
D|---------------2---------------2--------------0----------------------------|
A|------------0---------------2------------3--------0------------------------|
E|---------------------------------------------------------------------------|

e|-----0--1-1-1--0-------------0-0-----0-------------------------------------|
B|--3---------------0-0--1--3-------3-----1----------------------------------|
G|---------------------------------------------------------------------------|
D|--------0---0---------------------0----------------------------------------|
A|------------------2----3-----3----------0----------------------------------|
E|---------------------------------------------------------------------------|

e|---0------------------------------------------------------------------------|
B|------1----------------1--0--0--0--1----------------------------------------|
G|---------2------------------------------------------------------------------|
D|---------------2------------------------------------------------------------|
A|------------0-------------2--------3----------------------------------------|
E|----------------------------------------------------------------------------|

Pre-Chorus:
e|--------0--1--1-----------1p0-------0--1--1-----------1p0-------------------|
B|--1--3-----------0--1--3---------3-----------0--1--3------------------------|
G|----------------------------------------------------------------------------|
D|-----------0--------------0------------0--------------0---------------------|
A|-----------------2--3------------------------2--3---------------------------|
E|----------------------------------------------------------------------------|

e|-----0--1--1-----------0--0-----0-----0--------------0------------------------|
B|--3-----------0--1--3--------3-----1-----1-----1--3-----1-----1--3------------|
G|--------------------------------------------2--------------2------------------|
D|--------0--------------------0------------------------------------------------|
A|--------------2--3-----3-----------0--------0--------------0------------------|
E|------------------------------------------------------------------------------|


Chorus:
e|---0--------------0-----------------------------0--------------------------|
B|------1--------------1--0-----------0-0--1-1--3---1------------------------|
G|---------2-----------------------------------------------------------------|
D|---------------2---------------2--------------0----------------------------|
A|------------0---------------2------------3--------0------------------------|
E|---------------------------------------------------------------------------|

e|---0--------------0-----------------------------0--------------------------|
B|------1--------------1--0-----------0-0--1-1--3---1------------------------|
G|---------2-----------------------------------------------------------------|
D|---------------2---------------2--------------0----------------------------|
A|------------0---------------2------------3--------0------------------------|
E|---------------------------------------------------------------------------|

e|-----0--1-1-1--0-------------0-0-----0-------------------------------------|
B|--3---------------0-0--1--3-------3-----1----------------------------------|
G|---------------------------------------------------------------------------|
D|--------0---0---------------------0----------------------------------------|
A|------------------2----3-----3----------0----------------------------------|
E|---------------------------------------------------------------------------|

e|---0--------------0--------------------------------------------------------|
B|------1--------------1--0-----------0-0--1---------------------------------|
G|---------2-----------------------------------------------------------------|
D|---------------2---------------2-------------------------------------------|
A|------------0---------------2------------3---------------------------------|
E|---------------------------------------------------------------------------|


Verse:
e|---0--------------0-----------------------------0--------------------------|
B|------1--------------1--0-----------0-0--1-1--3---1------------------------|
G|---------2-----------------------------------------------------------------|
D|---------------2---------------2--------------0----------------------------|
A|------------0---------------2------------3--------0------------------------|
E|---------------------------------------------------------------------------|

e|---0--------------0-----------------------------0--------------------------|
B|------1--------------1--0-----------0-0--1-1--3---1------------------------|
G|---------2-----------------------------------------------------------------|
D|---------------2---------------2--------------0----------------------------|
A|------------0---------------2------------3--------0------------------------|
E|---------------------------------------------------------------------------|

e|-----0--1-1-1--0-------------0-0-----0-------------------------------------|
B|--3---------------0-0--1--3-------3-----1----------------------------------|
G|---------------------------------------------------------------------------|
D|--------0---0---------------------0----------------------------------------|
A|------------------2----3-----3----------0----------------------------------|
E|---------------------------------------------------------------------------|

e|---0------------------------------------------------------------------------|
B|------1----------------1--0--0--0--1----------------------------------------|
G|---------2------------------------------------------------------------------|
D|---------------2------------------------------------------------------------|
A|------------0-------------2--------3----------------------------------------|
E|----------------------------------------------------------------------------|


Pre-Chorus:
e|--------0--1--1-----------1p0-------0--1--1-----------1p0-------------------|
B|--1--3-----------0--1--3---------3-----------0--1--3------------------------|
G|----------------------------------------------------------------------------|
D|-----------0--------------0------------0--------------0---------------------|
A|-----------------2--3------------------------2--3---------------------------|
E|----------------------------------------------------------------------------|

e|-----0--1--1-----------0--0-----0-----0--------------0------------------------|
B|--3-----------0--1--3--------3-----1-----1-----1--3-----1-----1--3------------|
G|--------------------------------------------2--------------2------------------|
D|--------0--------------------0------------------------------------------------|
A|--------------2--3-----3-----------0--------0--------------0------------------|
E|------------------------------------------------------------------------------|


Chorus:
e|---0--------------0-----------------------------0--------------------------|
B|------1--------------1--0-----------0-0--1-1--3---1------------------------|
G|---------2-----------------------------------------------------------------|
D|---------------2---------------2--------------0----------------------------|
A|------------0---------------2------------3--------0------------------------|
E|---------------------------------------------------------------------------|

e|---0--------------0-----------------------------0--------------------------|
B|------1--------------1--0-----------0-0--1-1--3---1------------------------|
G|---------2-----------------------------------------------------------------|
D|---------------2---------------2--------------0----------------------------|
A|------------0---------------2------------3--------0------------------------|
E|---------------------------------------------------------------------------|

e|-----0--1-1-1--0-------------0-0-----0-------------------------------------|
B|--3---------------0-0--1--3-------3-----1----------------------------------|
G|---------------------------------------------------------------------------|
D|--------0---0---------------------0----------------------------------------|
A|------------------2----3-----3----------0----------------------------------|
E|---------------------------------------------------------------------------|

e|---0--------------0--------------------------------------------------------|
B|------1--------------1--0-----------0-0--1---------------------------------|
G|---------2-----------------------------------------------------------------|
D|---------------2---------------2-------------------------------------------|
A|------------0---------------2------------3---------------------------------|
E|---------------------------------------------------------------------------|

Strum Am chord diagramAmAm and C chord diagramCC with the rhytm you want 4 times. 4th time strum C chord diagramCC just one time and then go to


Pre-Chorus:
e|--------0--1--1-----------1p0-------0--1--1-----------1p0-------------------|
B|--1--3-----------0--1--3---------3-----------0--1--3------------------------|
G|----------------------------------------------------------------------------|
D|-----------0--------------0------------0--------------0---------------------|
A|-----------------2--3------------------------2--3---------------------------|
E|----------------------------------------------------------------------------|

e|-----0--1--1-----------0--0-----0-----0--------------0------------------------|
B|--3-----------0--1--3--------3-----1-----1-----1--3-----1-----1--3------------|
G|--------------------------------------------2--------------2------------------|
D|--------0--------------------0------------------------------------------------|
A|--------------2--3-----3-----------0--------0--------------0------------------|
E|------------------------------------------------------------------------------|


Chorus:
e|---0--------------0-----------------------------0--------------------------|
B|------1--------------1--0-----------0-0--1-1--3---1------------------------|
G|---------2-----------------------------------------------------------------|
D|---------------2---------------2--------------0----------------------------|
A|------------0---------------2------------3--------0------------------------|
E|---------------------------------------------------------------------------|

e|---0--------------0-----------------------------0--------------------------|
B|------1--------------1--0-----------0-0--1-1--3---1------------------------|
G|---------2-----------------------------------------------------------------|
D|---------------2---------------2--------------0----------------------------|
A|------------0---------------2------------3--------0------------------------|
E|---------------------------------------------------------------------------|

e|-----0--1-1-1--0-------------0-0-----0-------------------------------------|
B|--3---------------0-0--1--3-------3-----1----------------------------------|
G|---------------------------------------------------------------------------|
D|--------0---0---------------------0----------------------------------------|
A|------------------2----3-----3----------0----------------------------------|
E|---------------------------------------------------------------------------|

e|---0--------------0--------------------------------------------------------|
B|------1--------------1--0-----------0-0--1---------------------------------|
G|---------2-----------------------------------------------------------------|
D|---------------2---------------2-------------------------------------------|
A|------------0---------------2------------3---------------------------------|
E|---------------------------------------------------------------------------|

************************************

| p   Pull-off

Other versions of All Falls Down

All falls downChords
All falls down (Ver. 2)Chords
All falls down (Ver. 3)Chords
All falls down ukuleleChords

Almost there ...

Sign in to get your own page with links to favourite songs and more. You are just one click away...

Login with Facebook Login with Google