Log in

One click and you are in

Login with Facebook Login with Google

Why sign up and log in

Guitar Tabs Explorer
Walk Off The Earth bass tabs for Summer

Bass tabs

Tuning: Standard (E A D G)


Intro:
No Bass
Verse 1:
No Bass


G|--------------------|
D|--------------------|  X3
A|-0--------3---------|
E|----1--1------3---3-|

G|-------------------------|
D|-------------------------|
A|-0-------3---------------|
E|----1--1-----3--3-----1--|


Verse 2:

G|---------------------------------------------------------------------------------|
D|--------2--2------------------5-5------------------2--2----------------5--5------|
A|--0--0--------0--0--------3-3-----3-3---------0--0------0--0------3--3------3--3-|
E|--------------------1--1----------------3--3-----------------1--1----------------|

G|-----------------------------------------------|
D|------------3---3--3-3-3-----------5--------3--|
A|--0----0--0---------------3---3--3-------------|
E|-----------------------------------------------|


Chorus:

G|---------------------|   G|----------------------------------------|
D|---------------------| X2  D|----3--3--------------------------------|
A|--0--------3---------|   A|-0---------3--------0---------3---------|
E|-----1--1-------3--3-|   E|--------------3--3------1--1-------3--3-|


Bridge:

G|----------------------------|
D|---3---5------------5--3----|
A|-----------3--2--0----------|
E|----------------------------|


Last Chorus:

G|------------------------------------------------------------------|
D|------------------------------------------3--3--------------------|
A|--0-------3--------0---------3--------0---------3---------0-------|
E|----1--1-----3--3----1--1--------3--3--------------3--3------1--1-|

G|------------------------------------------------------------------------|
D|---------------3--3---------------------------------------3--3----------|
A|--3--------0---------3-----------0----------3----------0---------3------|
E|-----3--3----------------3--3--------1--1-------3--3----------------3--3|

G|------------------------------------|
D|------------------------------------|
A|--0----------3----------------------|
E|------1--1-------3--3---------------|

Almost there ...

Sign in to get your own page with links to favourite songs and more. You are just one click away...

Login with Facebook Login with Google