Log in

One click and you are in

Login with Facebook Login with Google

Why sign up and log in

Guitar Tabs Explorer
Wakefield tabs for Infamous

Guitar tabs

|==========================================|
                          |           INFAMOUS BY WAKEFIELD          |
                          |==========================================|

yer this is my first tab and the first tab for infamous so rate it good... yer thanks...
you like it.
sounds good to me.

standard tuning.

 Verses:
e|----------------------------------------------------|
b|----------------------------------------------------|
g|-x--x-11-11-11--9--9--9--9--------------------------|
d|-x--x-11-11-11--9--9--9--9--9--9--9--7--7--7--7-----|
a|-x--x--9--9--9--7--7--7--7--9--9--9--7--7--7--7-----|
e|----------------------------7--7--7--5--5--5--5-----|


 Chorus:
e|------------------------------------------|
b|------------------------------------------|
g|--11---11---9---9-------------------------|
d|--11---11---9---9---9---9---7---7---7-----|
a|---9----9---7---7---9---9---7---7---7-----|

Almost there ...

Sign in to get your own page with links to favourite songs and more. You are just one click away...

Login with Facebook Login with Google