Log in

One click and you are in

Login with Facebook Login with Google

Why sign up and log in

Guitar Tabs Explorer
Vulfpeck bass tabs for Outro 440hz

Bass tabs

Tuning: Standard (E A D G)


Intro:

G|------------------------------------|--------------|----------------------------------------------------|
D|---------------2-3--3--2-1--0-------|---------3----|---------------2-3--3--2-1--0-----------------------|
A|-3--3--4-5--5-----------------4--3--|-3--4-5-------|-3--3--4-5--5-----------------4--3---3\1-1----------|
E|------------------------------------|--------------|--------------------------------------------3-4-5---|
G|----------------------------2-5--------------------------------------|
D|---7-5----------------3---4------5--5--5--5--------------------------|
A|-------8-7-5--5--7-8-\-----------------------------------------------|
E|-5-------------------------------------------3-3-3-3-3-3-3-3-3-3-3-3-|


Verse 1:

G|------------------------------------|--------------|------------------------------------|
D|---------------2-3--3--2-1--0-------|---------3----|---------------2-3--3--2-1--0-------|
A|-3--3--4-5--5-----------------4--3--|-3--4-5-------|-3--3--4-5--5-----------------4--3--|
E|------------------------------------|--------------|------------------------------------|

G|--------------------------------|---------------2-5-----------------------------------------|
D|---------------------7-5--------|---------3---4------5--5----5---5--------------------------|
A|-3----1--1--1--0---/-----8-7-5--|-5--7-8-\-----------------5---5----------------------------|
E|----3---------------------------|-----------------------------------3-3-3-3-3-3-3-3-3-3-3-3-|


Verse 2:

G|-----------------------------------|------------------------5-|------------------------------------|
D|--------------2-3--3--2-1--0-------|---------3----5-6-5-6-7---|---------------2-3--3--2-1--0-------|
A|-3--3--4-5--5----------------4--3--|-3--4-5-------------------|-3--3--4-5--5-----------------4--3--|
E|-----------------------------------|--------------------------|------------------------------------|

G|--------------------4-5-6---------------------------2-5---------------------------------------------------|
D|---------------------------7-5----------------3---4-----4--5--5----5---5----5-5-5-5-5-5-5-5-5-5-5-6-7-10--|
A|-4\2--1--1--1-0---/------------8-7-5--5--7-8-\-------------------5---5----5-------------------------------|
E|----------------------------------------------------------------------------------------------------------|

Verse 3:

G|--------------------------------------|-5--------------------------------5---5-------|
D|---------------2-3--3--2-1--0---------|-------------3--3-3-3-3-3-3-3-3-7---7---7-5-\-|
A|-3--3--4-5--5-----------------4----3--|---3-4-5---3----------------------------------|
E|---------------------------------3----|---------5------------------------------------|

G|---------------------------------------|------------------------------------------------------2-5----|
D|---------------2-3--3--2-1--0----------|------------------------7---7-5----------------3--3-4-----4--|
A|-3--3--4-5--5-----------------4-----3--|---3----1--1------0----/---/----8-7-5--5--7-8-\--------------|
E|--------------------------------3-5----|-3----3-------3-4--------------------------------------------|

G|---------------------------------------------5-8-7-5--------|-------------------------------------|
D|-5--5--5--5--5--5--5--5----5-5-5-5-5-5-5-5-7---------7-5-\--|---------------2-3--3--2-1--0--------|
A|-------------------------5----------------------------------|-3--3--4-5--5-----------------4---3--|
E|------------------------------------------------------------|--------------------------------3----|


Verse 4:

G|-----------------5------------------------------|---------------------------------6--|
D|-------------------7-5--------------------------|--------------2-3--3--2-1--0---6----|
A|-3--3--4-5---8---------8--3-5-3-8-7-8-----------|-3--3--4-5--5----------------4------|
E|--------------------------------------8-6-8-8\--|------------------------------------|

G|------------------------------------------------------2-5-------------------------------------------------|
D|-----------------------7----7-5------------------3--4-----4--5-5-5-5-5-5-5-5-5-5-/17-17-17-17-17-17-17-17-|
A|-3----3---1--1---0----/---/-----8-7-5--5--7-8--\----------------------------------------------------------|
E|----3---3------3------------------------------------------------------------------------------------------|


Verse 5:

G|-------------------------------------|--------------------|-------------------------------------------|
D|---------------2-3--3--2-1--0--------|--------------------|----------------------------2-3----3--2-1--|
A|-3--3--4-5--5-----------------4---3--|---3--4-5---3-/9----|-3------3--3-4-5-------5--5------3---------|
E|--------------------------------3----|-3--------5---------|---3-5-3---------5-5-5---------------------|

G|------------|--------------------------------------4-5-6-4/9--10-11-\--------|
D|-0----------|----------------------------------------------------------------|
A|---4--------|-3-----3-4------1--1----------2-3-4-5---------------------------|
E|-----2-4-2--|---3-5------5-3-------3-4-5-3----------------------------5-3-5--|

G|--------------------------------2-5--------------------------------17-------|
D|-----------------3---3-4--3-4-5-----4---5-/17-17-17-17-17-17-17-19----19-\--|
A|-5--5--7-8---------3------------------5-------------------------------------|
E|-----------\-1--------------------------------------------------------------|


Outro:

G|-----------------------------------7h8-7h8p7\5--|---4/5\4/5-------------10-9------------------------|
D|------------------2-3--3--2-1--0-0--------------|-----------------------------7-10------7------------|
A|-3--3--4-5-----5--------------------------------|-3---------4-5--8----8------------10-8---10-8-------|
E|-----------3-5----------------------------------|----------------------------------------------10-8--|

G|-------------------------------------------------------------|----------------------------------------|
D|-------10--------------12------------------------------------|-----------------------------7-5--------|
A|----10--------------12------------------8--7-6----5-------3--|-3----3-----1--1-----------/-----8-7-5--|
E|-8---------8-9-10----------11-12-13-8-5---------5---5-3-5----|----3---3-5-------3-4-5-----------------|

G|-------------------2-5----------------------------------------|
D|----------3----3-4-----4--------------------------------------|
A|-5--7-8-\-----------------------------------------------------|
E|--------------------------3-3-3-3-3-3-3--3--3--3--3--3--3--3--|


**************
* \ Slide down
* / Slide up
* h Hammer on
* p Pull off
**************

Almost there ...

Sign in to get your own page with links to favourite songs and more. You are just one click away...

Login with Facebook Login with Google