Log in

One click and you are in

Login with Facebook Login with Google

Why sign up and log in

Guitar Tabs Explorer
Воллны bass tabs for Тебя Нет Рядом

Тебя Нет Рядом bass tab - Воллны

Воллны bass tabs for Тебя Нет Рядом

Bass tabs

  • Difficulty: Beginner
Tuning: Standard (E A D G)


Intro:

 1 e + a 2 e + a 3 e + a 4 e + a 1 e + a 2 e + a 3 e + a 4 e + a   \
G|--------------------------------|--------------------------------|   \
D|--x-----x---------------7---5---|--x-----x---------------5---7---| play |
A|0-x---0-x---0-------------------|3-x---3-x---3-------------------| x1 |
E|--------------------------------|--------------------------------|   |
                                     |
 1 e + a 2 e + a 3 e + a 4 e + a 1 e + a 2 e + a 3 e + a 4 e + a    |
G|--------------------------------|--------------------------------|   |
D|--x-----x---------------7---5---|--x-----x---------------7---5---| play |
A|--x-----x-----------------------|--x-----x-----------------------| x1 |
E|0-----0-----0-------------------|0-----0-----0-------------------|   |
                                     | play
 1 e + a 2 e + a 3 e + a 4 e + a 1 e + a 2 e + a 3 e + a 4 e + a    | x2
G|--------------------------------|--------------------------------|   |
D|--x-----x---------------7---5---|--x-----x---------------7---5---| play |
A|0-x---0-x---0-------------------|3-x---3-x---3-------------------| x1 |
E|--------------------------------|--------------------------------|   |
                                     |
 1 e + a 2 e + a 3 e + a 4 e + a 1 e + a 2 e + a 3 e + a 4 e + a    |
G|--------------------------------|--------------------------------|   |
D|--x-----x---------------7---5---|--x-----x---------------5---7---| play |
A|--x-----x-----------------------|--x-----x-----------------------| x1 /
E|0-----0-----0-------------------|0-----0-----0-------------------|  /


Verse 1:

 1 e + a 2 e + a 3 e + a 4 e + a 1 e + a 2 e + a 3 e + a 4 e + a   \
G|--------------------------------|--------------------------------|   \
D|--x-----x---------------7---5---|--x-----x---------------5---7---| play |
A|0-x---0-x---0-------------------|3-x---3-x---3-------------------| x1 |
E|--------------------------------|--------------------------------|   |
                                     |
 1 e + a 2 e + a 3 e + a 4 e + a 1 e + a 2 e + a 3 e + a 4 e + a    |
G|--------------------------------|--------------------------------|   |
D|--x-----x---------------7---5---|--x-----x---------------7---5---| play |
A|--x-----x-----------------------|--x-----x-----------------------| x1 |
E|0-----0-----0-------------------|0-----0-----0-------------------|   |
                                     | play
 1 e + a 2 e + a 3 e + a 4 e + a 1 e + a 2 e + a 3 e + a 4 e + a    | x2
G|--------------------------------|--------------------------------|   |
D|--x-----x---------------7---5---|--x-----x---------------7---5---| play |
A|0-x---0-x---0-------------------|3-x---3-x---3-------------------| x1 |
E|--------------------------------|--------------------------------|   |
                                     |
 1 e + a 2 e + a 3 e + a 4 e + a 1 e + a 2 e + a 3 e + a 4 e + a    |
G|--------------------------------|--------------------------------|   |
D|--x-----x---------------7---5---|--x-----x---------------5---7---| play |
A|--x-----x-----------------------|--x-----x-----------------------| x1 /
E|0-----0-----0-------------------|0-----0-----0-------------------|  /


Chorus:

 1 + 2 + 3 + 4 +  1 + 2 + 3 + 4 +  1 + 2 + 3 + 4 +  1 + 2 + 3 + 4 +    \
G|------------------------|------------------------|------------------------|------------------------|   \
D|------------------------|------------------------|------------------------|------------------------| play |p
A|0--0--0--0--0--0--0--0--|10-10-10-10-10-10-10-10-|7--7--7--7--7--7--7--7--|7--7--7--7--7--7--7--7--| x1 |l
E|------------------------|------------------------|------------------------|------------------------|   |a
                                                      |y
 1 + 2 + 3 + 4 +  1 + 2 + 3 + 4 +  1 + 2 + 3 + 4 +  1 + 2 + 3 + 4 +     |
G|------------------------|------------------------|------------------------|------------------------|   |x
D|------------------------|------------------------|------------------------|------------------------| play |2
A|0--0--0--0--0--0--0--0--|10-10-10-10-10-12-12-10-|7--7--7--7--7--7--7--7--|7--7--7--7--5--5--5--5--| x1 /
E|------------------------|------------------------|------------------------|------------------------|  /


Post-Chorus:

 1 e + a 2 e + a 3 e + a 4 e + a 1 e + a 2 e + a 3 e + a 4 e + a   \
G|--------------------------------|--------------------------------|   \
D|--x-----x---------------7---5---|--x-----x---------------5---7---| play |
A|0-x---0-x---0-------------------|3-x---3-x---3-------------------| x1 |
E|--------------------------------|--------------------------------|   |
                                     |
 1 e + a 2 e + a 3 e + a 4 e + a 1 e + a 2 e + a 3 e + a 4 e + a    |
G|--------------------------------|--------------------------------|   |
D|--x-----x---------------7---5---|--x-----x---------------7---5---| play |
A|--x-----x-----------------------|--x-----x-----------------------| x1 |
E|0-----0-----0-------------------|0-----0-----0-------------------|   |
                                     | play
 1 e + a 2 e + a 3 e + a 4 e + a 1 e + a 2 e + a 3 e + a 4 e + a    | x2
G|--------------------------------|--------------------------------|   |
D|--x-----x---------------7---5---|--x-----x---------------7---5---| play |
A|0-x---0-x---0-------------------|3-x---3-x---3-------------------| x1 |
E|--------------------------------|--------------------------------|   |
                                     |
 1 e + a 2 e + a 3 e + a 4 e + a 1 e + a 2 e + a 3 e + a 4 e + a    |
G|--------------------------------|--------------------------------|   |
D|--x-----x---------------7---5---|--x-----x---------------5---7---| play |
A|--x-----x-----------------------|--x-----x-----------------------| x1 /
E|0-----0-----0-------------------|0-----0-----0-------------------|  /


Verse 2:

 1 e + a 2 e + a 3 e + a 4 e + a 1 e + a 2 e + a 3 e + a 4 e + a   \
G|--------------------------------|--------------------------------|   \
D|--x-----x---------------7---5---|--x-----x---------------5---7---| play |
A|0-x---0-x---0-------------------|3-x---3-x---3-------------------| x1 |
E|--------------------------------|--------------------------------|   |
                                     |
 1 e + a 2 e + a 3 e + a 4 e + a 1 e + a 2 e + a 3 e + a 4 e + a    |
G|--------------------------------|--------------------------------|   |
D|--x-----x---------------7---5---|--x-----x---------------7---5---| play |
A|--x-----x-----------------------|--x-----x-----------------------| x1 |
E|0-----0-----0-------------------|0-----0-----0-------------------|   |
                                     | play
 1 e + a 2 e + a 3 e + a 4 e + a 1 e + a 2 e + a 3 e + a 4 e + a    | x2
G|--------------------------------|--------------------------------|   |
D|--x-----x---------------7---5---|--x-----x---------------7---5---| play |
A|0-x---0-x---0-------------------|3-x---3-x---3-------------------| x1 |
E|--------------------------------|--------------------------------|   |
                                     |
 1 e + a 2 e + a 3 e + a 4 e + a 1 e + a 2 e + a 3 e + a 4 e + a    |
G|--------------------------------|--------------------------------|   |
D|--x-----x---------------7---5---|--x-----x---------------5---7---| play |
A|--x-----x-----------------------|--x-----x-----------------------| x1 /
E|0-----0-----0-------------------|0-----0-----0-------------------|  /


Chorus:

 1 + 2 + 3 + 4 +  1 + 2 + 3 + 4 +  1 + 2 + 3 + 4 +  1 + 2 + 3 + 4 +    \
G|------------------------|------------------------|------------------------|------------------------|   \
D|------------------------|------------------------|------------------------|------------------------| play |p
A|0--0--0--0--0--0--0--0--|10-10-10-10-10-10-10-10-|7--7--7--7--7--7--7--7--|7--7--7--7--7--7--7--7--| x1 |l
E|------------------------|------------------------|------------------------|------------------------|   |a
                                                      |y
 1 + 2 + 3 + 4 +  1 + 2 + 3 + 4 +  1 + 2 + 3 + 4 +  1 + 2 + 3 + 4 +     |
G|------------------------|------------------------|------------------------|------------------------|   |x
D|------------------------|------------------------|------------------------|------------------------| play |2
A|0--0--0--0--0--0--0--0--|10-10-10-10-10-12-12-10-|7--7--7--7--7--7--7--7--|7--7--7--7--5--5--5--5--| x1 /
E|------------------------|------------------------|------------------------|------------------------|  /


Interlude:

 1 + 2 + 3 + 4 +  1 + 2 + 3 + 4 +  1 + 2 + 3 + 4 +  1 + 2 + 3 + 4 +    \
G|------------------------|------------------------|------------------------|------------------------|   \
D|------------------------|------------------------|------------------------|------------------------| play |p
A|0--0--0--0--0--0--0--0--|10-10-10-10-10-10-10-10-|7--7--7--7--7--7--7--7--|7--7--7--7--7--7--7--7--| x1 |l
E|------------------------|------------------------|------------------------|------------------------|   |a
                                                      |y
 1 + 2 + 3 + 4 +  1 + 2 + 3 + 4 +  1 + 2 + 3 + 4 +  1 + 2 + 3 + 4 +     |
G|------------------------|------------------------|------------------------|------------------------|   |x
D|------------------------|------------------------|------------------------|------------------------| play |2
A|0--0--0--0--0--0--0--0--|10-10-10-10-10-12-12-10-|7--7--7--7--7--7--7--7--|7--7--7--7--5--5--5--5--| x1 /
E|------------------------|------------------------|------------------------|------------------------|  /


Outro Chorus:

 1 e + a 2 e + a 3 e + a 4 e + a 1 e + a 2 e + a 3 e + a 4 e + a   \
G|--------------------------------|--------------------------------|   \
D|--x-----x---------------7---5---|--x-----x---------------5---7---| play |
A|0-x---0-x---0-------------------|3-x---3-x---3-------------------| x1 |
E|--------------------------------|--------------------------------|   |
                                     |
 1 e + a 2 e + a 3 e + a 4 e + a 1 e + a 2 e + a 3 e + a 4 e + a    |
G|--------------------------------|--------------------------------|   |
D|--x-----x---------------7---5---|--x-----x---------------7---5---| play |
A|--x-----x-----------------------|--x-----x-----------------------| x1 |
E|0-----0-----0-------------------|0-----0-----0-------------------|   |
                                     | play
 1 e + a 2 e + a 3 e + a 4 e + a 1 e + a 2 e + a 3 e + a 4 e + a    | x2
G|--------------------------------|--------------------------------|   |
D|--x-----x---------------7---5---|--x-----x---------------7---5---| play |
A|0-x---0-x---0-------------------|3-x---3-x---3-------------------| x1 |
E|--------------------------------|--------------------------------|   |
                                     |
 1 e + a 2 e + a 3 e + a 4 e + a 1 e + a 2 e + a 3 e + a 4 e + a    |
G|--------------------------------|--------------------------------|   |
D|--x-----x---------------7---5---|--x-----x---------------5---7---| play |
A|--x-----x-----------------------|--x-----x-----------------------| x1 /
E|0-----0-----0-------------------|0-----0-----0-------------------|  /

 1 e + a 2 e + a 3 e + a 4 e + a
G|--------------------------------||
D|--x-----x---------------x-------|| play
A|0-x---0-x---0-----------x-------|| x1
E|--------------------------------||

*******************

x = rest

*******************

Almost there ...

Sign in to get your own page with links to favourite songs and more. You are just one click away...

Login with Facebook Login with Google