Log in

One click and you are in

Login with Facebook Login with Google

Why sign up and log in

Guitar Tabs Explorer
Volante Nyoy guitar tabs for You should know by now

Guitar tabs

YOU SHOULD KNOW BY NOW
Nyoy Volante
johnsantos_17@yahoo.com
standard tuning: (EADGBE)

Intro:
E------------------12--7sl/9--5-------5---
B-12harm---9h10-12------------------------
G----------9------------------------2----
D----------9-----------------------2-------
A---------11----------------------------
E----------9---------------------2----------
E-2h4-5----|----2---|----2--|------------------
B-------5--|-3h5--2-|-3h5--2|-2-2h3-5------5--
G----------|--------|-------|-------------44---
D-0--------|--------|-------|------------2-----
A---------4|------0-|-2-----|-----------------
E----------|--------|-------|----------0------

Verse:
E----2--4--2------4--2--0-
B-0--3--5--3---0--5--3--0-
G-2--2--4--2---2--4--2--1-
D-2--4--6--4---2--6--4--2-
A-0--2--4--2---0--4--2--2-
E-----------------------0-
E-2--4--2-|-4--7-4-------
B-3--5--2-|-5--5-5---3-2-
G-2--4--2-|-4--4-4---0-0-
D-4--6--2-|-6--6-6---2-2-
A-2--4--4-|-4--4-4---0-0-
E-------2-|--------------
E-2--4-2- -2--0-0--
B-2--5-2- -3--0-0--
G-2--4-2-play 2x-2--2-1--
D-0--6-2- -4--2-2--
A----4-4- -2--2-2--
E-------- ----0-0--
Adlib:
E-----0----
B--3--0-----
G--0--1----
D--0--2----
A--2--2----
E--3--0-----

Refrain:
E--4--2--2--0-|-------2--4\2--0-----
B--5--2--3--0-|--3\2--2--5\3--0-------
G--4--2--2--1-|--0\0--2--4\2--1-------
D--6--2--4--2-|--2\2--0--6\4--2------
A--4--4--2--2-|--0\0-----4\2--2------
E-----2-----0-|---------------0---
E-2--4--4-|-2--4--2--0------------
B-2--5--4-|-2--5--3--0------------
G-2--4--4-|-2--4--2--1------------
D-0--6--4-|-0--6--4--2------------
A----4--2-|----4--2--2----------
E---------|----------0-------


________________________________________________________________________________

Almost there ...

Sign in to get your own page with links to favourite songs and more. You are just one click away...

Login with Facebook Login with Google