Log in

One click and you are in

Login with Facebook Login with Google

Why sign up and log in

Guitar Tabs Explorer
Voivod bass tabs for Fix my heart

Bass tabs

Band: Voivod
Album: The Outer Limits

Tempo: 180bpm
4/4

Guitar Solo 1:

G|----------------------------|
D|----------------------------|
A|----------------------------|
E|--0--0--0--0--0--0--0--0----| x24
Verse 1:

G|-------------------------|-------------------------|-------------------------|-------------------------|
D|-------------------------|-------------------------|-------------------------|-------------------------|
A|-------------------------|----------7--------7-----|-------------------------|-------2-----------------|
E|-3--3--3--3--3--5--3--0--|----0--0--------0-----0--|-3--3--3--3--3--5--3--0--|----0-----0--0--0--0--0--| x2

G|-------------------------|-------------------------|-------------------------|-------------------------|
D|-------------------------|-------------------------|-------------------------|-------------------------|
A|-------------------------|-------------------------|-------------------------|-------2-----------------|
E|-3--3--3--3--3--5--3--0--|----0--0--0--0--0--0--0--|-3--3--3--3--3--5--3--0--|----0-----0--0--0--0--0--| x2


Chorus 1:

G|-------------------------|-------------------------|-------------------------|-------------------------|
D|-------------------------|-------------------------|-------------------------|-------------------------|
A|-4--4--4--2--2--2--4--4--|-4--2--2--2--4--4--2--2--|-0-----0--0--0--0--0-----|-------------------------|
E|-------------------------|-------------------------|----------------------2--|----2--2--2--2--2--2--2--| x3

G|-------------------------|-------------------------|-------------------------|-------------------------|
D|-------------------------|-------------------------|-------------------------|-------------------------|
A|-4--4--4--2--2--2--4--4--|-4--2--2--2--4--4--2--2--|-0-----0--0--0--0--0-----|-------------------------|
E|-------------------------|-------------------------|----------------------2--|----2--2--2--2--2--2--0--|

G|----------------------------|
D|----------------------------|
A|--------7-----7-----7-------|
E|-----------0-----0-----0----|

Verse 2:

G|-------------------------|-------------------------|-------------------------|-------------------------|
D|-------------------------|-------------------------|-------------------------|-------------------------|
A|-------------------------|----------7--------7-----|-------------------------|-------2-----------------|
E|-3--3--3--3--3--5--3--0--|----0--0--------0-----0--|-3--3--3--3--3--5--3--0--|----0-----0--0--0--0--0--| x4


Chorus 2:

G|-------------------------|-------------------------|-------------------------|-------------------------|
D|-------------------------|-------------------------|-------------------------|-------------------------|
A|-4--4--4--2--2--2--4--4--|-4--2--2--2--4--4--2--2--|-0-----0--0--0--0--0-----|-------------------------|
E|-------------------------|-------------------------|----------------------2--|----2--2--2--2--2--2--2--| x3

G|-------------------------|-------------------------|-------------------------|-------------------------|
D|-------------------------|-------------------------|-------------------------|-------------------------|
A|-4--4--4--2--2--2--4--4--|-4--2--2--2--4--4--2--2--|-0-----0--0--0--0--0-----|-------------------------|
E|-------------------------|-------------------------|----------------------2--|----2--2--2--2--2--2--0--|

G|----------------------------|
D|----------------------------|
A|--------7-----7-----7-------|
E|-----------0-----0-----0----|


Verse 3:

G|-------------------------|-------------------------|-------------------------|-------------------------|
D|-------------------------|-------------------------|-------------------------|-------------------------|
A|-------------------------|----7-----7--------7-----|-------------------------|-------2-----------------|
E|-3--3--3--3--3--5--3--0--|-------0--------0-----0--|-3--3--3--3--3--5--3--0--|----0-----0--0--0--0--0--|

G|-------------------------|-------------------------|-------------------------|-------------------------|
D|-------------------------|-------------------------|-------------------------|-------------------------|
A|-------------------------|----------7--------7-----|-------------------------|-------2-----------------|
E|-3--3--3--3--3--5--3--0--|----0--0--------0-----0--|-3--3--3--3--3--5--3--0--|----0-----0--0--0--0--0--| x3

Guitar Solo 2:

G|-------------------------|-------------------------|-------------------------|-------------------------|
D|-------------------------|-------------------------|-------------------------|-------------------------|
A|-------------------------|-------------------------|-------------------------|-------------------------|
E|-8--8--8--8--8--8--8--10-|----10-10-10-10-10-10-10-|-8--8--8--8--8--8--8--0--|----0--0--0--0--0--0--0--| x3

G|-------------------------|-------------------------|-------------------------|-------------------------|
D|-------------------------|-------------------------|-------------------------|-------------------------|
A|-------------------------|-------------------------|-------------------------|-------------------------|
E|-8--8--8--8--8--8--8--10-|----10-10-10-10-10-10-10-|-8--8--8--8--8--10----0--|----0--0--0--0--0--0--0--|

G|-------------------------|-------------------------|-------------------------|-------------------------|
D|-------------------------|-------------------------|-------------------------|-------------------------|
A|-------------------------|-------------------------|-------------------------|-------------------------|
E|-8--8--8--8--8--8--8--10-|----10-10-10-10-10-10-10-|-8--8--8--8--8--8--8--0--|----0--0--0--0--0--0--0--| x2


Verse 4:

G|-------------------------|-------------------------|-------------------------|-------------------------|
D|-------------------------|-------------------------|-------------------------|-------------------------|
A|-------------------------|----------7--------7-----|-------------------------|-------2-----------------|
E|-3--3--3--3--3--5--3--0--|----0--0--------0-----0--|-3--3--3--3--3--5--3--0--|----0-----0--0--0--0--0--| x2

G|-------------------------|-------------------------|-------------------------|-------------------------|
D|-------------------------|-------------------------|-------------------------|-------------------------|
A|-------------------------|----------7--------7-----|-------------------------|----------7--------7-----|
E|-3--3--3--3--3--5--3--0--|----0--0--------0-----0--|-3--3--3--3--3--5--3--0--|----0--0--------0-----0--|

G|-------------------------|-------------------------|-------------------------|-------------------------|
D|-------------------------|-------------------------|-------------------------|-------------------------|
A|-------------------------|----------7--------7-----|-------------------------|-------------------------|
E|-3--3--3--3--3--5--3--0--|----0--0--------0-----0--|-3--3--3--3--3--5--3--0--|----0--0--0--0--0--0--0--|


Chorus 3:

G|-------------------------|-------------------------|-------------------------|-------------------------|
D|-------------------------|-------------------------|-------------------------|-------------------------|
A|-4--4--4--2--2--2--4--4--|-4--2--2--2--4--4--2--2--|-0-----0--0--0--0--0-----|-------------------------|
E|-------------------------|-------------------------|----------------------2--|----2--2--2--2--2--2--2--| x3

G|-------------------------|-------------------------|-------------------------|-------------------------|
D|-------------------------|-------------------------|-------------------------|-------4-----4-----4-----|
A|-4--4--4--2--2--2--4--4--|-4--2--2--2--4--4--2--2--|-0-----0--0--0--0--------|-------------------------|
E|-------------------------|-------------------------|----------------------2--|----2-----2-----2-----2--|

G|-------------------------|----------------------------|
D|-4-----4-----4-----4-----|----------------------------|
A|-------------------------|-----------7--------7-------|
E|----2-----2-----2-----2--|--0-----0--------0-----0----|


Verse 5:

G|-------------------------|-------------------------|-------------------------|-------------------------|
D|-------------------------|-------------------------|-------------------------|-------------------------|
A|-------------------------|----------7--------7-----|-------------------------|-------2-----------------|
E|-3--3--3--3--3--5--3--0--|----0--0--------0-----0--|-3--3--3--3--3--5--3--0--|----0-----0--0--0--0--0--| x2

G|-------------------------|-------------------------|-------------------------|-------------------------|
D|-------------------------|-------------------------|-------------------------|-------------------------|
A|-------------------------|----------7--------7-----|-------------------------|-------2-----------------|
E|-3--3--3--3--3--5--3--0--|----0--0--------0-----0--|-3--3--3--3--3--5--3--0--|----0-----0--0--0--0--0--|

Guitar Solo 3:

G|-------------------------|-------------------------|
D|-------------------------|-------------------------|
A|-------------------------|-------------------------|
E|-3--3--3--3--3--5--3--0--|----0--0--0--0--0--0--0--| x7

G|-------------------------|
D|-------------------------|
A|-------------------------|
E|-3--3--3--3--3--5--3--0--|


Outro:

G|-------------------------|
D|-------------------------|
A|-------------------------|
E|----0--0--0--0--0--0--0--|

G|-------------------------|
D|-------------------------|
A|-------------------------|

Almost there ...

Sign in to get your own page with links to favourite songs and more. You are just one click away...

Login with Facebook Login with Google