Log in

One click and you are in

Login with Facebook Login with Google

Why sign up and log in

Guitar Tabs Explorer
Vocaloid guitar tabs for Toluthin antenna

Guitar tabs with lyrics

Intro:

e|----------------------------------------------------------------------------------|
B|-5-5-5-5--7-7-7-7--4-4-4-4--9--9--9--9---5-5-5-5--7-7-7-7--12-12-12-12-12-12-12-12|
G|-7-7-7-7--9-9-9-9--6-6-6-6--11-11-11-11--7-7-7-7--9-9-9-9--14-14-14-14-14-14-14-14|
D|-7-7-7-7--9-9-9-9--6-6-6-6--11-11-11-11--7-7-7-7--9-9-9-9--14-14-14-14-14-14-14-14|
A|----------------------------------------------------------------------------------|
E|----------------------------------------------------------------------------------|


Verse 1:

e|----------------------------------------------------------------------------------|
B|-5-5-5-5-5-5-5-5--7-7-7-7-7-7-7-7--12-12-12-12-12-12-12-12-12-12-12-12-12-12-12-12|
G|-7-7-7-7-7-7-7-7--9-9-9-9-9-9-9-9--14-14-14-14-14-14-14-14-14-14-14-14-14-14-14-14|
D|-7-7-7-7-7-7-7-7--9-9-9-9-9-9-9-9--14-14-14-14-14-14-14-14-14-14-14-14-14-14-14-14|
A|----------------------------------------------------------------------------------|
E|----------------------------------------------------------------------------------|

chotto ikemen to butsukatta tingting tingting ting tingting tingting

e|----------------------------------------------------------------------------------|
B|-5-5-5-5-5-5-5-5--7-7-7-7-7-7-7-7--12-12-12-12-12-12-12-12-12-12-12-12-12-12-12-12|
G|-7-7-7-7-7-7-7-7--9-9-9-9-9-9-9-9--14-14-14-14-14-14-14-14-14-14-14-14-14-14-14-14|
D|-7-7-7-7-7-7-7-7--9-9-9-9-9-9-9-9--14-14-14-14-14-14-14-14-14-14-14-14-14-14-14-14|
A|----------------------------------------------------------------------------------|
E|----------------------------------------------------------------------------------|

shukudai wo suru no wasureta tingting tingting ting tingting tingting

e|----------------------------------------------------------------------------------|
B|-5-5-5-5-5-5-5-5--7-7-7-7-7-7-7-7--12-12-12-12-12-12-12-12-12-12-12-12-12-12-12-12|
G|-7-7-7-7-7-7-7-7--9-9-9-9-9-9-9-9--14-14-14-14-14-14-14-14-14-14-14-14-14-14-14-14|
D|-7-7-7-7-7-7-7-7--9-9-9-9-9-9-9-9--14-14-14-14-14-14-14-14-14-14-14-14-14-14-14-14|
A|----------------------------------------------------------------------------------|
E|----------------------------------------------------------------------------------|

boku mo maccho ni nareru kana tingting tingting ting tingting tingting

e|----------------------------------------------------------------------------------|
B|-5-5-5-5-5-5-5-5--7-7-7-7-7-7-7-7--12-12-12-12-12-12-12-12-12-12-12-12-12-12-12-12|
G|-7-7-7-7-7-7-7-7--9-9-9-9-9-9-9-9--14-14-14-14-14-14-14-14-14-14-14-14-14-14-14-14|
D|-7-7-7-7-7-7-7-7--9-9-9-9-9-9-9-9--14-14-14-14-14-14-14-14-14-14-14-14-14-14-14-14|
A|----------------------------------------------------------------------------------|
E|----------------------------------------------------------------------------------|

gomi bako ni atama butsuketa tingting tingting ting tingting tingting


Pre-Chorus:

e|------------------------------------------------------------------------------------|
B|-9--9--9--9--9--9--9--9---7-7-7-7-7-7-7-7--5-5-5-5--7-7-7-7--12-12-12-12-12-12-12-12|
G|-11-11-11-11-11-11-11-11--9-9-9-9-9-9-9-9--7-7-7-7--9-9-9-9--14-14-14-14-14-14-14-14|
D|-11-11-11-11-11-11-11-11--9-9-9-9-9-9-9-9--7-7-7-7--9-9-9-9--14-14-14-14-14-14-14-14|
A|------------------------------------------------------------------------------------|
E|------------------------------------------------------------------------------------|

chiisana tameiki tsuku sukippu wo sh*tara koketa

e|----------------------------------------------------------------------------------------------|
B|-9--9--9--9--9--9--9--9---7-7-7-7-7-7-7-7--5-5-5-5-5-5-5-5-5-5-5-5-5-5-5-5--7-7-7-7-7-7-7-7-7-|
G|-11-11-11-11-11-11-11-11--9-9-9-9-9-9-9-9--7-7-7-7-7-7-7-7-7-7-7-7-7-7-7-7--9-9-9-9-9-9-9-9-9-|
D|-11-11-11-11-11-11-11-11--9-9-9-9-9-9-9-9--7-7-7-7-7-7-7-7-7-7-7-7-7-7-7-7--9-9-9-9-9-9-9-9-9-|
A|----------------------------------------------------------------------------------------------|
E|----------------------------------------------------------------------------------------------|

sakadachi na mako rizumu kyou wa donna mari mo ga tsureru no kana


Chorus:

e|-------------------9--9--9--9---------------------------------------------------------|
B|-5-5-5-5--7-7-7-7--11-11-11-11--9--9--9--9---5-5-5-5--7-7-7-7--12-12-12-12-12-12-12-12|
G|-7-7-7-7--9-9-9-9--11-11-11-11--11-11-11-11--7-7-7-7--9-9-9-9--14-14-14-14-14-14-14-14|
D|-7-7-7-7--9-9-9-9---------------11-11-11-11--7-7-7-7--9-9-9-9--14-14-14-14-14-14-14-14|
A|--------------------------------------------------------------------------------------|
E|--------------------------------------------------------------------------------------|

boku no koto wo mushi sh*tara boku no koto wo mushi sh*tara

e|-------------------9--9--9--9---------------------------------------------------------|
B|-5-5-5-5--7-7-7-7--11-11-11-11--9--9--9--9---5-5-5-5--7-7-7-7--12-12-12-12-12-12-12-12|
G|-7-7-7-7--9-9-9-9--11-11-11-11--11-11-11-11--7-7-7-7--9-9-9-9--14-14-14-14-14-14-14-14|
D|-7-7-7-7--9-9-9-9---------------11-11-11-11--7-7-7-7--9-9-9-9--14-14-14-14-14-14-14-14|
A|--------------------------------------------------------------------------------------|
E|--------------------------------------------------------------------------------------|

achi kochi shisen sora sh*te mo suki ga dekichau kara

e|-----------------------10-10-10-10-------------------------------------------------------------|
B|-6-6-6-6--8--8--8--8---12-12-12-12---10-10-10-10--6-6-6-6--8--8--8--8---13-13-13-13-13-13-13-13|
G|-8-8-8-8--10-10-10-10--12-12-12-12---12-12-12-12--8-8-8-8--10-10-10-10--15-15-15-15-15-15-15-15|
D|-8-8-8-8--10-10-10-10----------------12-12-12-12--8-8-8-8--10-10-10-10--15-15-15-15-15-15-15-15|
A|-----------------------------------------------------------------------------------------------|
E|-----------------------------------------------------------------------------------------------|

koneko no hige yura sh*tara nidone sh*ta nante nukashi oru

e|-----------------------10-10-10-10-------------------------------------------------------------|
B|-6-6-6-6--8--8--8--8---12-12-12-12---10-10-10-10--6-6-6-6--8--8--8--8---13-13-13-13-13-13-13-13|
G|-8-8-8-8--10-10-10-10--12-12-12-12---12-12-12-12--8-8-8-8--10-10-10-10--15-15-15-15-15-15-15-15|
D|-8-8-8-8--10-10-10-10----------------12-12-12-12--8-8-8-8--10-10-10-10--15-15-15-15-15-15-15-15|
A|-----------------------------------------------------------------------------------------------|
E|-----------------------------------------------------------------------------------------------|

pokke ni tsumeta chokoreeto akubi wo sh*te toketa


Instrumental:

e|--------------------------------------------------------------------------------------|
B|-5-5-5-5--7-7-7-7--12-12-12-12--9--9--9--9---5-5-5-5--7-7-7-7--12-12-12-12-12-12-12-12|
G|-7-7-7-7--9-9-9-9--14-14-14-14--11-11-11-11--7-7-7-7--9-9-9-9--14-14-14-14-14-14-14-14|
D|-7-7-7-7--9-9-9-9--14-14-14-14--11-11-11-11--7-7-7-7--9-9-9-9--14-14-14-14-14-14-14-14|
A|--------------------------------------------------------------------------------------|
E|--------------------------------------------------------------------------------------|

e|--------------------------------------------------------------------------------------|
B|-5-5-5-5--7-7-7-7--12-12-12-12--9--9--9--9---5-5-5-5--7-7-7-7--12-12-12-12-12-12-12-12|
G|-7-7-7-7--9-9-9-9--14-14-14-14--11-11-11-11--7-7-7-7--9-9-9-9--14-14-14-14-14-14-14-14|
D|-7-7-7-7--9-9-9-9--14-14-14-14--11-11-11-11--7-7-7-7--9-9-9-9--14-14-14-14-14-14-14-14|
A|--------------------------------------------------------------------------------------|
E|--------------------------------------------------------------------------------------|


Verse 2:

e|----------------------------------------------------------------------------------|
B|-5-5-5-5-5-5-5-5--7-7-7-7-7-7-7-7--12-12-12-12-12-12-12-12-12-12-12-12-12-12-12-12|
G|-7-7-7-7-7-7-7-7--9-9-9-9-9-9-9-9--14-14-14-14-14-14-14-14-14-14-14-14-14-14-14-14|
D|-7-7-7-7-7-7-7-7--9-9-9-9-9-9-9-9--14-14-14-14-14-14-14-14-14-14-14-14-14-14-14-14|
A|----------------------------------------------------------------------------------|
E|----------------------------------------------------------------------------------|

poisu tesare teta raburetaa tingting tingting ting tingting tingting

e|----------------------------------------------------------------------------------|
B|-5-5-5-5-5-5-5-5--7-7-7-7-7-7-7-7--12-12-12-12-12-12-12-12-12-12-12-12-12-12-12-12|
G|-7-7-7-7-7-7-7-7--9-9-9-9-9-9-9-9--14-14-14-14-14-14-14-14-14-14-14-14-14-14-14-14|
D|-7-7-7-7-7-7-7-7--9-9-9-9-9-9-9-9--14-14-14-14-14-14-14-14-14-14-14-14-14-14-14-14|
A|----------------------------------------------------------------------------------|
E|----------------------------------------------------------------------------------|

kata tsumuri dassou sh*teta tingting tingting ting tingting tingting


Pre-Chorus:

e|------------------------------------------------------------------------------------|
B|-9--9--9--9--9--9--9--9---7-7-7-7-7-7-7-7--5-5-5-5--7-7-7-7--12-12-12-12-12-12-12-12|
G|-11-11-11-11-11-11-11-11--9-9-9-9-9-9-9-9--7-7-7-7--9-9-9-9--14-14-14-14-14-14-14-14|
D|-11-11-11-11-11-11-11-11--9-9-9-9-9-9-9-9--7-7-7-7--9-9-9-9--14-14-14-14-14-14-14-14|
A|------------------------------------------------------------------------------------|
E|------------------------------------------------------------------------------------|

howaito noizu kaki mawasu kagi kaketara shime chau zo

e|----------------------------------------------------------------------------------------------|
B|-9--9--9--9--9--9--9--9---7-7-7-7-7-7-7-7--5-5-5-5-5-5-5-5-5-5-5-5-5-5-5-5--7-7-7-7-7-7-7-7-7-|
G|-11-11-11-11-11-11-11-11--9-9-9-9-9-9-9-9--7-7-7-7-7-7-7-7-7-7-7-7-7-7-7-7--9-9-9-9-9-9-9-9-9-|
D|-11-11-11-11-11-11-11-11--9-9-9-9-9-9-9-9--7-7-7-7-7-7-7-7-7-7-7-7-7-7-7-7--9-9-9-9-9-9-9-9-9-|
A|----------------------------------------------------------------------------------------------|
E|----------------------------------------------------------------------------------------------|

karee nogu wa mi soshiru ash*ta wa donna tsuke maga hayaru kana?




Chorus:

e|-------------------9--9--9--9---------------------------------------------------------|
B|-5-5-5-5--7-7-7-7--11-11-11-11--9--9--9--9---5-5-5-5--7-7-7-7--12-12-12-12-12-12-12-12|
G|-7-7-7-7--9-9-9-9--11-11-11-11--11-11-11-11--7-7-7-7--9-9-9-9--14-14-14-14-14-14-14-14|
D|-7-7-7-7--9-9-9-9---------------11-11-11-11--7-7-7-7--9-9-9-9--14-14-14-14-14-14-14-14|
A|--------------------------------------------------------------------------------------|
E|--------------------------------------------------------------------------------------|


kimi no sono turu turu na hitomi no himitsu wo oshiete yo

e|----------------------------------------------------------------------------------|
B|-5-5-5-5--7-7-7-7--4-4-4-4--9--9--9--9---5-5-5-5--7-7-7-7--12-12-12-12-12-12-12-12|
G|-7-7-7-7--9-9-9-9--6-6-6-6--11-11-11-11--7-7-7-7--9-9-9-9--14-14-14-14-14-14-14-14|
D|-7-7-7-7--9-9-9-9--6-6-6-6--11-11-11-11--7-7-7-7--9-9-9-9--14-14-14-14-14-14-14-14|
A|----------------------------------------------------------------------------------|
E|----------------------------------------------------------------------------------|

fura fura kage wo atsumete mo nani mo kawaranai desho

e|-----------------------10-10-10-10-------------------------------------------------------------|
B|-6-6-6-6--8--8--8--8---12-12-12-12---10-10-10-10--6-6-6-6--8--8--8--8---13-13-13-13-13-13-13-13|
G|-8-8-8-8--10-10-10-10--12-12-12-12---12-12-12-12--8-8-8-8--10-10-10-10--15-15-15-15-15-15-15-15|
D|-8-8-8-8--10-10-10-10----------------12-12-12-12--8-8-8-8--10-10-10-10--15-15-15-15-15-15-15-15|
A|-----------------------------------------------------------------------------------------------|
E|-----------------------------------------------------------------------------------------------|
ashiato kesh*te uwagaki sh*te wantumi de tsutaeru yo

e|-----------------------10-10-10-10-------------------------------------------------------------|
B|-6-6-6-6--8--8--8--8---12-12-12-12---10-10-10-10--6-6-6-6--8--8--8--8---13-13-13-13-13-13-13-13|
G|-8-8-8-8--10-10-10-10--12-12-12-12---12-12-12-12--8-8-8-8--10-10-10-10--15-15-15-15-15-15-15-15|
D|-8-8-8-8--10-10-10-10----------------12-12-12-12--8-8-8-8--10-10-10-10--15-15-15-15-15-15-15-15|
A|-----------------------------------------------------------------------------------------------|
E|-----------------------------------------------------------------------------------------------|

kasabuta ni hatta nemuke wa hohoemi kawashi kieta


Bridge:

e|--------------------------------------------------------------------------------------|
B|-5-5-5-5--7-7-7-7--12-12-12-12--9--9--9--9---5-5-5-5--7-7-7-7--12-12-12-12-12-12-12-12|
G|-7-7-7-7--9-9-9-9--14-14-14-14--11-11-11-11--7-7-7-7--9-9-9-9--14-14-14-14-14-14-14-14|
D|-7-7-7-7--9-9-9-9--14-14-14-14--11-11-11-11--7-7-7-7--9-9-9-9--14-14-14-14-14-14-14-14|
A|--------------------------------------------------------------------------------------|
E|--------------------------------------------------------------------------------------|

tingting tingting ting tingting tingting

e|--------------------------------------------------------------------------------------|
B|-5-5-5-5--7-7-7-7--12-12-12-12--9--9--9--9---5-5-5-5--7-7-7-7--12-12-12-12-12-12-12-12|
G|-7-7-7-7--9-9-9-9--14-14-14-14--11-11-11-11--7-7-7-7--9-9-9-9--14-14-14-14-14-14-14-14|
D|-7-7-7-7--9-9-9-9--14-14-14-14--11-11-11-11--7-7-7-7--9-9-9-9--14-14-14-14-14-14-14-14|
A|--------------------------------------------------------------------------------------|
E|--------------------------------------------------------------------------------------|

tingting tingting ting tingting tingting

e|--------------------------------------------------------------------------------------|
B|-5-5-5-5--7-7-7-7--12-12-12-12--9--9--9--9---5-5-5-5--7-7-7-7--12-12-12-12-12-12-12-12|
G|-7-7-7-7--9-9-9-9--14-14-14-14--11-11-11-11--7-7-7-7--9-9-9-9--14-14-14-14-14-14-14-14|
D|-7-7-7-7--9-9-9-9--14-14-14-14--11-11-11-11--7-7-7-7--9-9-9-9--14-14-14-14-14-14-14-14|
A|--------------------------------------------------------------------------------------|
E|--------------------------------------------------------------------------------------|

tingting tingting ting tingting tingting

e|--------------------------------------------------------------------------------------|
B|-5-5-5-5--7-7-7-7--12-12-12-12--9--9--9--9---5-5-5-5--7-7-7-7--12-12-12-12-12-12-12-12|
G|-7-7-7-7--9-9-9-9--14-14-14-14--11-11-11-11--7-7-7-7--9-9-9-9--14-14-14-14-14-14-14-14|
D|-7-7-7-7--9-9-9-9--14-14-14-14--11-11-11-11--7-7-7-7--9-9-9-9--14-14-14-14-14-14-14-14|
A|--------------------------------------------------------------------------------------|
E|--------------------------------------------------------------------------------------|

tingting tingting ting tingting tingting


Chorus:

e|-------------------9----------------------------------------|
B|-5--------7--------11--------9---------5--------7--------12~|
G|-7--------9--------11--------11--------7--------9--------14~|
D|-7--------9------------------11--------7--------9--------14~|
A|------------------------------------------------------------|
E|------------------------------------------------------------|

aiueo ku made yayuyo ku mite boku no hanashi kiite

e|-------------------9------------------------------------------------------------|
B|-5--------7--------11--------9---------5--------7--------12-12-12-12-12-12-12-12|
G|-7--------9--------11--------11--------7--------9--------14-14-14-14-14-14-14-14|
D|-7--------9------------------11--------7--------9--------14-14-14-14-14-14-14-14|
A|--------------------------------------------------------------------------------|
E|--------------------------------------------------------------------------------|

suki mo kirai mo docchi datte uketomete ageru kara


e|-----------------------11-11-11-11------------------------------------------------------------|
B|-7-7-7-7--9--9--9--9---13-13-13-13--11-11-11-11--7-7-7-7--9--9--9--9---14-14-14-14-14-14-14-14|
G|-9-9-9-9--11-11-11-11--13-13-13-13--13-13-13-13--9-9-9-9--11-11-11-11--16-16-16-16-16-16-16-16|
D|-9-9-9-9--11-11-11-11---------------13-13-13-13--9-9-9-9--11-11-11-11--16-16-16-16-16-16-16-16|
A|----------------------------------------------------------------------------------------------|
E|----------------------------------------------------------------------------------------------|


turu tasukami auiru peroti no pasuta tabetai churu turucchu

e|-----------------------11-11-11-11------------------------------------------------------------|
B|-7-7-7-7--9--9--9--9---13-13-13-13--11-11-11-11--7-7-7-7--9--9--9--9---14-14-14-14-14-14-14-14|
G|-9-9-9-9--11-11-11-11--13-13-13-13--13-13-13-13--9-9-9-9--11-11-11-11--16-16-16-16-16-16-16-16|
D|-9-9-9-9--11-11-11-11---------------13-13-13-13--9-9-9-9--11-11-11-11--16-16-16-16-16-16-16-16|
A|----------------------------------------------------------------------------------------------|
E|----------------------------------------------------------------------------------------------|


mayotte itatte shoganai konya wa udon ni shiyo


Outro:

e|----------------------------------------------------------------------------------------------|
B|-7-7-7-7--9--9--9--9---14-14-14-14--11-11-11-11--7-7-7-7--9--9--9--9---14-14-14-14-14-14-14-14|
G|-9-9-9-9--11-11-11-11--16-16-16-16--13-13-13-13--9-9-9-9--11-11-11-11--16-16-16-16-16-16-16-16|
D|-9-9-9-9--11-11-11-11--16-16-16-16--13-13-13-13--9-9-9-9--11-11-11-11--16-16-16-16-16-16-16-16|
A|----------------------------------------------------------------------------------------------|
E|----------------------------------------------------------------------------------------------|

e|----------------------------------------------------------------------------------------------|
B|-7-7-7-7--9--9--9--9---14-14-14-14--11-11-11-11--7-7-7-7--9--9--9--9---14-14-14-14-14-14-14-14|
G|-9-9-9-9--11-11-11-11--16-16-16-16--13-13-13-13--9-9-9-9--11-11-11-11--16-16-16-16-16-16-16-16|
D|-9-9-9-9--11-11-11-11--16-16-16-16--13-13-13-13--9-9-9-9--11-11-11-11--16-16-16-16-16-16-16-16|
A|----------------------------------------------------------------------------------------------|
E|----------------------------------------------------------------------------------------------|

↓ Add and view comments below ↓

What do you think about this song and these tabs?

Add your comments, questions, rant or a thumbs up below.

Almost there ...

Sign in to get your own page with links to favourite songs and more. You are just one click away...

Login with Facebook Login with Google