Log in

One click and you are in

Login with Facebook Login with Google

Why sign up and log in

Guitar Tabs Explorer
Antonio Vivaldi tabs for 4 seasons

Guitar tabs

Tune the guitar down half step! enjoy, it is a very easy song to play and sounds really impressive


A chord diagramD#D#||--5--------5--------5-----|-----5--------3--------3--|
A chord diagramA#A#||-----6--------6--------6--|--------6--------4--------|
A chord diagramF#F#||--------7--------7--------|--7--------7--------5-----|
A chord diagramC#C#||--------------------------|--------------------------|
A chord diagramG#G#||--------------------------|--------------------------|
A chord diagramD#D#||--------------------------|--------------------------|

--------3--------3--------|--1--------1--------1-----|
--4--------4--------4-----|-----3--------3--------3--|
-----5--------5--------5--|--------3--------3--------|
--------------------------|--------------------------|
--------------------------|--------------------------|
--------------------------|--------------------------|


-----1--------1--------1--|--------1--------1--------|
--------3--------1--------|--1--------1--------1-----|
--3--------3--------2-----|-----2--------2--------2--|
--------------------------|--------------------------|
--------------------------|--------------------------|
--------------------------|--------------------------|


--------------------------|--------------------------|
--5--------5--------5-----|-----5--------3--------3--|
-----3--------3--------3--|--------3--------2--------|
--------5--------5--------|--5--------5--------3-----|
--------------------------|--------------------------|
--------------------------|--------------------------|


--------------------------|--------------------------|
--------3--------3--------|--5--------5--------5-----|
--2--------2--------2-----|-----6--------6--------6--|
-----3--------3--------3--|--------7--------7--------|
--------------------------|--------------------------|
--------------------------|--------------------------|


--------------3--------3--|--------3--------3--------|
-----5-----------3--------|--3--------3--------3-----|
--------6-----------3-----|-----3--------3--------3--|
--7--------7--------------|--------------------------|
--------------------------|--------------------------|
--------------------------|--------------------------|


--1--------1--------1-----|-----1--------1--------1--|
-----3--------3--------3--|--------3--------3--------|
--------3--------3--------|--3--------3--------2-----|
--------------------------|--------------------------|
--------------------------|--------------------------|
--------------------------|--------------------------|


--------1--------1--------|--0--------0--------0-----|
--3--------3--------3-----|-----3--------3--------3--|
-----2--------2--------2--|--------2--------2--------|
--------------------------|--------------------------|
--------------------------|--------------------------|
--------------------------|--------------------------|


-----0--------------------|--------------------------|
--------3-----8--------8--|--------8--------8--------|
--2--------2-----7--------|--7--------7--------7-----|
--------------------8-----|-----8--------8--------8--|
--------------------------|--------------------------|
--------------------------|--------------------------|


--------------------------|-----------------------------|
--9--------9--------9-----|-----9--------13---------13--|
-----9--------9--------9--|--------9---------9----------|
--------9--------9--------|--9--------9---------10------|
--------------------------|-----------------------------|
--------------------------|-----------------------------|


-------------------------------|----------------------------------|
---------13---------13---------|--11----------11----------11------|
--9----------9----------9------|------10----------10----------10--|
-----10---------10---------10--|----------12----------12----------|
-------------------------------|----------------------------------|
-------------------------------|----------------------------------|


----------------------------------|----------------------------------|
------11----------10----------10--|----------10----------10----------|
----------10----------10----------|--10----------10----------10------|
--12----------12----------10------|------10----------10----------10--|
----------------------------------|----------------------------------|
----------------------------------|----------------------------------|


--1--------1--------1-----|-----1--------1--------1--|
-----3--------3--------3--|--------3--------3--------|
--------3--------3--------|--3--------3--------2-----|
--------------------------|--------------------------|
--------------------------|--------------------------|
--------------------------|--------------------------|


--------1--------1--------|--0--------0--------0-----|
--3--------3--------3-----|-----3--------3--------3--|
-----2--------2--------2--|--------2--------2--------|
--------------------------|--------------------------|
--------------------------|--------------------------|
--------------------------|--------------------------|


-----0--------0--------0--|--1--1--1--1--1--1--1--1--|
--------3--------3--------|--3--3--3--3--3--3--3--3--|
--2--------2--------2-----|--3--3--3--3--3--3--3--3--|
--------------------------|--------------------------|
--------------------------|--------------------------|
--------------------------|--------------------------|


--1--1--1--1--1--1--1--1--|--0--0--0--0--0--0--0--0--|
--3--3--3--3--3--3--3--3--|--3--3--3--3--3--3--3--3--|
--2--2--2--2--2--2--2--2--|--2--2--2--2--2--2--2--2--|
--------------------------|--------------------------|
--------------------------|--------------------------|
--------------------------|--------------------------|


--1--1--1--1--1--1--1--1--|--1--1--1--1--1--1--1--1--|
--3--3--3--3--3--3--3--3--|--3--3--3--3--3--3--3--3--|
--3--3--3--3--3--3--3--3--|--2--2--2--2--2--2--2--2--|
--------------------------|--------------------------|
--------------------------|--------------------------|
--------------------------|--------------------------|


--0--0--0--0--0--0--0--0--|-------------------|------------------||
--3--3--3--3--3--3--3--3--|-------------------|------------------||
--2--2--2--2--2--2--2--2--|--7----------------|------------------||
--------------------------|--7----------------|------------------||
--------------------------|--5----------------|------------------||
--------------------------|-------------------|------------------||

Almost there ...

Sign in to get your own page with links to favourite songs and more. You are just one click away...

Login with Facebook Login with Google