Log in

One click and you are in

Login with Facebook Login with Google

Why sign up and log in

Guitar Tabs Explorer
Vishal Mishra tabs for

Guitar tabs

A chord diagramE MajorE |-------|--------------3-------------------------------------|
A chord diagramBB |-------|-----------3----------------------------------------|
A chord diagramG+G |-------|--3-----5-----------------0-----2--3-----2L----2----|
A chord diagramD MajorD |-------|----------------------------------------------------|
A chord diagramA augmentedA |-------|----------------------------------------------------|
A chord diagramE MajorE |-------|----------------------------------------------------|
--------------3-------------------------------------|
-----------3----------------------------------------|
--3-----5-----------------0-----2--3-----2L----2----|
----------------------------------------------------|
----------------------------------------------------|
----------------------------------------------------|


--------------3-------------------------------------|
-----------3----------------------------------------|
--3-----5-----------------0-----2--3-----2L----2----|
----------------------------------------------------|
----------------------------------------------------|
----------------------------------------------------|


--------------3-------------------------------------|
-----------3----------------------------------------|
--3-----5-----------------0-----2--3-----2----------|
----------------------------------------------------|
----------------------------------------------------|
----------------------------------------------------|


-----------------------------------------------10---|
-----------------------------------------6----------|
----------------------------------------------------|
----------------------------------------------------|
----------------------------------------------------|
----------------------------------------------------|

--10----10-------8-----------------------------10---|
-----------------------11-10-------------6----------|
----------------------------------------------------|
----------------------------------------------------|
----------------------------------------------------|
----------------------------------------------------|


--10----10-------8----------------------------------|
-----------------------11-10------------------------|
----------------------------------------------------|
----------------------------------------------------|
----------------------------------------------------|
----------------------------------------------------|


--13L---------------13-10-15----13----11----10------|
----------------------------------------------------|
----------------------------------------------------|
----------------------------------------------------|
----------------------------------------------------|
----------------------------------------------------|


--10-11-13L---13-------------------------------10---|
-----------------------------------------6----------|
----------------------------------------------------|
----------------------------------------------------|
----------------------------------------------------|
----------------------------------------------------|


--10----10-------8-----------------------------10---|
-----------------------11-10-------------6----------|
----------------------------------------------------|
----------------------------------------------------|
----------------------------------------------------|
----------------------------------------------------|


--10----10-11-10-8-----------------------8-----10---|
-----------------------11-10------------------------|
----------------------------------------------------|
----------------------------------------------------|
----------------------------------------------------|
----------------------------------------------------|


--8--------------6-----5--5--------------13---------|
----------------------------------------------------|
----------------------------------------------------|
----------------------------------------------------|
----------------------------------------------------|
----------------------------------------------------|


--8--10L------10-------------------------------10---|
-----------------------------------------6----------|
----------------------------------------------------|
----------------------------------------------------|
----------------------------------------------------|
----------------------------------------------------|


--10----10-------8-----------------------------10---|
-----------------------11-10-------------6----------|
----------------------------------------------------|
----------------------------------------------------|
----------------------------------------------------|
----------------------------------------------------|


--10----10-------8-----------------------8-----10---|
-----------------------11-10------------------------|
----------------------------------------------------|
----------------------------------------------------|
----------------------------------------------------|
----------------------------------------------------|


--8--------------6-----5--5--------------13---------|
----------------------------------------------------|
----------------------------------------------------|
----------------------------------------------------|
----------------------------------------------------|
----------------------------------------------------|


-----10L------10-------------------------8-----10---|
--13------------------------------------------------|
----------------------------------------------------|
----------------------------------------------------|
----------------------------------------------------|
----------------------------------------------------|


--8--------------6-----5--5--------------13---------|
----------------------------------------------------|
----------------------------------------------------|
----------------------------------------------------|
----------------------------------------------------|
----------------------------------------------------|


--8--10L------10------------------------------------|
----------------------------------------------------|
----------------------------------------------------|
----------------------------------------------------|
----------------------------------------------------|
----------------------------------------------------|


--10-------10-11-13----10L10-------------10-8-------|
-----------------------------------------------11---|
----------------------------------------------------|
----------------------------------------------------|
----------------------------------------------------|
----------------------------------------------------|


--10-------10-11-13----10L10-------------------15---|
-----------------------------------------11---------|
----------------------------------------------------|
----------------------------------------------------|
----------------------------------------------------|
----------------------------------------------------|


--15L---------15-13----11----------------13----11---|
--------------------------13------------------------|
----------------------------------------------------|
----------------------------------------------------|
----------------------------------------------------|
----------------------------------------------------|


--10-------------------------------------------10---|
----------------------------------------------------|
----------------------------------------------------|
----------------------------------------------------|
----------------------------------------------------|
----------------------------------------------------|


--10L---------10-8-----6--10-------------11----13---|
----------------------------------------------------|
----------------------------------------------------|
----------------------------------------------------|
----------------------------------------------------|
----------------------------------------------------|


--10L---------10-8-----6--10-------------------15---|
-----------------------------------------11---------|
----------------------------------------------------|
----------------------------------------------------|
----------------------------------------------------|
----------------------------------------------------|


--15L---------15-13----11-8--------------13----11---|
----------------------------------------------------|
----------------------------------------------------|
----------------------------------------------------|
----------------------------------------------------|
----------------------------------------------------|


--10-------------------------------------------10---|
-----------------------------------------6----------|
----------------------------------------------------|
----------------------------------------------------|
----------------------------------------------------|
----------------------------------------------------|


--10----10-------------------------------------10---|
-----------------13----11-10------------------------|
-----------------------------------------10---------|
----------------------------------------------------|
----------------------------------------------------|
----------------------------------------------------|


--10----10-11-10-8-----6--5--------------8-----10---|
----------------------------------------------------|
----------------------------------------------------|
----------------------------------------------------|
----------------------------------------------------|
----------------------------------------------------|


--8--------------6-----5--5--------------13---------|
----------------------------------------------------|
----------------------------------------------------|
----------------------------------------------------|
----------------------------------------------------|
----------------------------------------------------|


-----10L------10------------------------------------||
--13------------------------------------------------||
----------------------------------------------------||
----------------------------------------------------||
----------------------------------------------------||
----------------------------------------------------||


Legend
L - tied note
x - dead note
h - hammer on/pull off
b - bend
s - slide
~ - vibrato
g - ghost note
> - accentuated note
t - trill
M - palm mute
. - staccato
P - popping (bass)
S - slapping (bass)
+ - tapping
W - wide vibrato
< - fade in
w - whammy bar
= - tremolo picking
v - brush up
^ - brush down
V - pick stroke up
n - pick stroke down

Other versions of

Aaj bhiChords
Humko tum mil gayeChords
Jee na paungaChords
Kaise huaChords
ManjhaChords
Nai lagdaChords
Pehla pehla pyaar acousticChords
Sajna veChords
Woh chaand kahan se laogiChords
Woh chaand kahan se laogiTabs

Almost there ...

Sign in to get your own page with links to favourite songs and more. You are just one click away...

Login with Facebook Login with Google