Log in

One click and you are in

Login with Facebook Login with Google

Why sign up and log in

Guitar Tabs Explorer
Violent Femmes tabs for I swear it i can change

I Swear It I Can Change tab - Violent Femmes

Violent Femmes tabs for I swear it i can change

Guitar tabs with lyrics

This is from The South Park Bigger, Longer and Uncut Soundtrack. Enjoy!


Intro Riff
Guitar One                 Guitar Two
                       (Alternate Pick Quickly, Repeat as neccesary.)
e-----------]          e----2/3-3-3-3-3---]
B-----------]          B----2/3-3-3-3-3---]
G-----------]          G----2/3-3-3-3-3---]
D-----------]          D------------------]
A-----1-----]          A------------------]
E-1-3---3~--]          E------------------]
Verse One
A chord diagramG minorGm
Some people say that I'm a bad guy
A chord diagramDmDm
They may be right,
A chord diagramG minorGm
They may be wrong
A chord diagramG minorGm
But it's not as if I don't try,
A chord diagramDmDm
I just mess up
A chord diagramG minorGm
And I go wrong


Verse Tab
   A chord diagramG minorGm          A chord diagramDmDm    A chord diagramG minorGm
e--3--3--3--3--5--5--3-----] x2
B--3--3--3--3--6--6--3-----]
G--3--3--3--3--7--7--3-----]
D--------------------------]
A--------------------------]
E--------------------------]


Chorus

A chord diagramC minorCm
But I can change, I can change,
A chord diagramG minorGm
I can learn to keep my promises I swear it
A chord diagramBb majorBb
Open up my heart and I will tear it
A chord diagramA augmentedA					A chord diagramD MajorD
Any minute now I swear I'll share it

A chord diagramC minorCm
Oh it's strange, yes it's strange,
A chord diagramG minorGm
Though I guess it's quite clear,
A chord diagramBb majorBb
I killed the antelope, the deer,
A chord diagramA augmentedA
And there's no home on my range
A chord diagramG#G#
Yes, I'm a little dearranged
A chord diagramG minorGm
But I can change.


Chorus Tab
  A chord diagramC minorCm           A chord diagramC minorCm           A chord diagramG minorGm           A chord diagramG minorGm
e-----3------------3------------3-------------3-------------]
B---4---4---4----4---4---4----3---3---3-----3---3---3-------]
G---------5------------5------------3-------------3---------]
D-5------------5------------5------------5------------------]
A-----------------------------------------------------------]
E-----------------------------------------------------------]
   A chord diagramBb majorBb           A chord diagramA augmentedA              A chord diagramD MajorD                   A chord diagramD MajorD
e------6------------5----------------10-----------------10-----------]
B----6---6---6----5---5---5-------10----10----10-----10----10----10--]
G----------7------------6------------------11-----------------11-----]
D--8------------7-------------12------------------12-----------------]
A--------------------------------------------------------------------]
E--------------------------------------------------------------------]


  A chord diagramC minorCm           A chord diagramC minorCm           A chord diagramG minorGm           A chord diagramG minorGm
e-----3------------3------------3-------------3-------------]
B---4---4---4----4---4---4----3---3---3-----3---3---3-------]
G---------5------------5------------3-------------3---------]
D-5------------5------------5------------5------------------]
A-----------------------------------------------------------]
E-----------------------------------------------------------]
   A chord diagramBb majorBb           A chord diagramA augmentedA            A chord diagramG#G#             A chord diagramG minorGm
e------6------------5------------4-------4--3~---------------]
B----6---6---6----5---5---5----4---4---4----3~---------------]
G----------7------------6------------5------3~---------------]
D--8------------7------------6--------------5~---------------]
A------------------------------------------------------------]
E------------------------------------------------------------]

Guitar Riff After chorus
Still working it out. will have up soon.


Verse 2
A chord diagramG minorGm
It's not my fault that I'm so evil
A chord diagramDmDm		A chord diagramG minorGm
It's society, sobriety
A chord diagramG minorGm
You know my momma picked cotton
A chord diagramG minorGm
And my daddy Boll Weevil
A chord diagramDmDm		A chord diagramG minorGm
It was history, it wasn't me

(Verse Tab The Same As Above)


Chorus
A chord diagramC minorCm
But I can change, I can change,
A chord diagramG minorGm
I can learn to keep my promises I know it
A chord diagramBb majorBb
Open up my heart and I will show it
A chord diagramA augmentedA
Any minute passed

A chord diagramD MajorD
'til I outgrow it
(Chorus Tab Same As Above)

Breakdown
You'll never change
You'll never change
You'll always be a dog with me


A chord diagramBb majorBb
Yes, but don't be such a boob,
A chord diagramA augmentedA
Manna from heaven shall be my food
A chord diagramG#G#
My acts of past were misconstrued
A chord diagramBb majorBb
And God above will watch me change
A chord diagramA augmentedA			A chord diagramG#G# 			A chord diagramG minorGm
And while I'm changing, I'll be changing, while I CHANGE!

Soon...
(Tab just Like Second Half of chorus)


Riff After That
Guitar One Plays 4 times
e--------------------------------------------]
B--------------------------------------------]
G--------------------------------------------]
D-------0-0-0-1-0------------0~----1-0-------]
A---1-3-----------1~-----1-3-----------------]
E-3--------------------3---------------1-3~--]

Guitar Two
Harmonizes Riff one on the last two times Guitar one plays it.
e--------------------------------------------]
B-------3-3-3-4-3------------3~----4-3-------]
G---3-5-----------3~-----3-5-----------------]
D-5--------------------5---------------3-5~--]
A--------------------------------------------]
E--------------------------------------------]


Chorus
A chord diagramC minorCm
But I can change, I can change
A chord diagramG minorGm
I can learn to keep my promises I swear it
A chord diagramBb majorBb
Open up my heart and I will tear it
A chord diagramA augmentedA			A chord diagramG#G#
Any minute now I swear I'll share it,
A chord diagramG minorGm
I'm gonna change

Almost there ...

Sign in to get your own page with links to favourite songs and more. You are just one click away...

Login with Facebook Login with Google