Log in

One click and you are in

Login with Facebook Login with Google

Why sign up and log in

Guitar Tabs Explorer
The Vines chords for Anything you say

Guitar chords with lyrics

Band: The Vines
Album: Wicked Nature
Year: 2014
Tabber: beranger80@hotmail.com
Submitted: Lorrie (Loved the chords, spreading the word!)


Verse (0:00)

A chord diagramBb majorBb            A chord diagramC majorC
Anything you say now, darling
    A chord diagramBb majorBb            A chord diagramC majorC
Is gonna be the way we want it
A chord diagramD#D#          A chord diagramBb majorBb
Living in a sea of morons
A chord diagramD#D#             A chord diagramC majorC              A chord diagramBb majorBb
I don t wanna see them go on (everyday)



Chorus (0:16)

A chord diagramG#G#                  A chord diagramFF
Ah, ah, ah, ah, ah, ah
A chord diagramC majorC
Live by the music, live by the music
A chord diagramG#G#                  A chord diagramFF
Ah, ah, ah, ah, ah, ah



Verse (0:26)

A chord diagramBb majorBb            A chord diagramC majorC
Anything you do now darling,
  A chord diagramBb majorBb            A chord diagramC majorC
Is gonna be the truth they ll promise
A chord diagramD#D#                 A chord diagramBb majorBb
Even though they never mean it
A chord diagramD#D#                A chord diagramC majorC                A chord diagramBb majorBb
They don t wanna know your secret (anyway)



Chorus (0:42)

A chord diagramG#G#                  A chord diagramFF
Ah, ah, ah, ah, ah, ah
A chord diagramC majorC
Live by the music, live by the music
A chord diagramG#G#                  A chord diagramFF
Ah, ah, ah, ah, ah, ah



Solo (0:54)

A chord diagramBb majorBb   A chord diagramC majorC
e--------------------------------------|
b--------------------------------------|
g--------------------------------------|
d---------8--10-8-10b--8---------------| x2
a----8-10----------------10-9-8--------|
e--------------------------------10-8--|

A chord diagramD#D#   A chord diagramBb majorBb
e----------------------------------|
b----------------------------------|
g----------------------------------|
d--------6--8-6-8b-6---------------|
a----6-8--------------8-7-6--------|
e---------------------------8-6-8--|

A chord diagramD#D#   A chord diagramC majorC
e------------------------------------|
b------------------------------------|
g------------------------------------|
d-------8--10-8-10b--8---------------|
a--8-10----------------10-9-8--------|
e------------------------------10-8--|



Chorus (1:09)

A chord diagramG#G#                  A chord diagramFF
Ah, ah, ah, ah, ah, ah
A chord diagramC majorC
Live by the music, live by the music
A chord diagramG#G#                  A chord diagramFF
Ah, ah, ah, ah, ah, ah
A chord diagramC majorC
Live by the music, live by the music
A chord diagramG#G#                  A chord diagramFF
Ah, ah, ah, ah, ah, ah
A chord diagramC majorC
Live by the music, live by the music
A chord diagramG#G#                  A chord diagramFF
Ah, ah, ah, ah, ah, ah



Outro (1:34)

Almost there ...

Sign in to get your own page with links to favourite songs and more. You are just one click away...

Login with Facebook Login with Google