Log in

One click and you are in

Login with Facebook Login with Google

Why sign up and log in

Guitar Tabs Explorer
Viagra Boys bass tabs for Secret canine agent

Bass tabs

  • Difficulty: Beginner
Tuning: Standard (E A D G)

Main Bassline:
Do you see that weimaraner
G|-------------------------------------------|
D|-------------------------------------------|
A|-----------------------------1-0-----------| X12
E|-3-3-3-3-3-3-3-3-3-3-3-3-3-3-----4---------|


Break: 0:33-0:38

G|-------------|
D|-------------|
A|-------------|
E|-------------|

Main Bassline: 0:38-1:10
Looks like he gave me a signal
G|-------------------------------------------|
D|-------------------------------------------|
A|-----------------------------1-0-----------| X12
E|-3-3-3-3-3-3-3-3-3-3-3-3-3-3-----4---------|


Break: 1:10-1:16

G|-------------|
D|-------------|
A|-------------|
E|-------------|

Synth Build: 1:16-1:31

G|---------------------------------------------------------------------|
D|-5-------5-------5-------5-------5-------5-------6---7---8---9-------|
A|---------------------------------------------------------------------|
E|---3-3-3---3-3-3---3-3-3---3-3-3---3-3-3---3-3-3---4---5---6---7-----|

He’s a good boy
D|---------------------------------------------------------------------|
D|---------------------------------------------------------------------|
A|---------------------------------------------------------------------| X2
E|6/8-8-8--6/8-8-8--6/8-8-8--8-9-8-9p6-6-6-6-6-6-6-6-9p6-8-6-9-6-------|


Outro: 1:31-1:45

G|-------------------------------------------|
D|-------------------------------------------|
A|-----------------------------1-0-----------|X4
E|-3-3-3-3-3-3-3-3-3-3-3-3-3-3-----4---------|


Synth buildup is hard to hear but the bass might be just following the root notes. I added what I can hear
from the synth.


************************************
| p Pull-off
| / Slide up
************************************

Almost there ...

Sign in to get your own page with links to favourite songs and more. You are just one click away...

Login with Facebook Login with Google