Log in

One click and you are in

Login with Facebook Login with Google

Why sign up and log in

Guitar Tabs Explorer
Viagra Boys bass tabs for Jungle man

Bass tabs

Tuning: Standard (E A D G)


Verse:

G|------------------------------|
D|------------------------------|
A|----8--------8-----5----------| x6:
E|--7---7----7---7--5-5-7-------|

Chorus:

G|---------------------------------------|
D|---------------------------------------|
A|--5-5-5-5------------------------------| x4:
E|-5---------5-5-5-5-7-7-7-7-5-5-5-5-----|


Post-Chorus:

(This is basically the same as the verse but
without the first bit and it also features the
saxophone)
G|------------------|
D|------------------|
A|---8------5-------| x4:
E|-7---7--5---5-7---|


Verse 2:

G|------------------------------|
D|------------------------------|
A|----8--------8-----5----------| x6:
E|--7---7----7---7--5-5-7-------|


Chorus 2:

G|---------------------------------------|
D|---------------------------------------|
A|--5-5-5-5------------------------------| x4:
E|-5---------5-5-5-5-7-7-7-7-5-5-5-5-----|


Post-Chorus 2:

G|------------------|
D|------------------|
A|---8------5-------| x4:
E|-7---7--5---5-7---|


Verse 3:

"I learnt how to kill a pig..."
There is no bass for this bit
G|------------------|
D|------------------|
A|------------------| x2:
E|------------------|


Chorus 3:

G|---------------------------------------|
D|---------------------------------------|
A|--5-5-5-5------------------------------| x4:
E|-5---------5-5-5-5-7-7-7-7-5-5-5-5-----|


Post-Chorus 3:

G|------------------|
D|------------------|
A|---8------5-------| x5:
E|-7---7--5---5-7---|
(This last bit is played for 5 instead of 4 because
the final bit of the song is just the bass playing
this riff at the end, it's totally optional.)

Almost there ...

Sign in to get your own page with links to favourite songs and more. You are just one click away...

Login with Facebook Login with Google