Log in

One click and you are in

Login with Facebook Login with Google

Why sign up and log in

Guitar Tabs Explorer
Vex Red guitar tabs for Sleep does nothing for you

Guitar tabs

Album:  Start with a Strong Persistent Desire


tuning:  DADGBE
intro:
bass:
G--------------------------------|-----------------------------------|
D--------------------------------|-----------------------------------|
A-------------------8~~~--1--1---|------------------8~~-----2--2-----|
D--0---/10--12-------------------|--0---/10--12----------------------|


main riff:
B------------------------------------------------|
G------------------------------------------------|
D--0--10h12--0--12p10--0--10h12--0--12h10--0--9--|
A--0--10h12--0--12p10--0--10h12--0--12h10--0--9--|
D--0--10h12--0--12p10--0--10h12--0--12h10--0--9--|

B------------------------------------------------|
G------------------------------------------------|
D--0--10h12--0--12p10--0--10h12--0--12h10--0--1--|
A--0--10h12--0--12p10--0--10h12--0--12h10--0--1--|
D--0--10h12--0--12p10--0--10h12--0--12h10--0--1--|

B------------------------------------------------|
G------------------------------------------------|
D--0--10h12--0--12p10--0--10h12--0--12h10--0--9--|
A--0--10h12--0--12p10--0--10h12--0--12h10--0--9--|
D--0--10h12--0--12p10--0--10h12--0--12h10--0--9--|

B------------------------------------------------|
G------------------------------------------------|
D--0--10h12--0--12p10--0--10h12--0--10-12-13-10--|
A--0--10h12--0--12p10--0--10h12--0--10-12-13-10--|
D--0--10h12--0--12p10--0--10h12--0--10-12-13-10--|

verse 2:
B---------------------------------------------------------|
G--7--------10--7--------14--------7--------10--7---------|
D---------------------------------------------------------|
A--5--------8---5--------12--------5--------8---5---------|
D---------------------------------------------------------|

2nd chorus overdub:  (comes in on the second time)
E---------|-----------|
B----/13~~|-----12~~--|
G---------|-----------|
D----/12~~|-----9~~~--|
A---------|-----------|

guitar for the bridge:
B--------------------------------------------------|
G--14-14-14-14-15-15-15-15-14-12-12-12-12-/15--14--|
D--------------------------------------------------|
A--12-12-12-12-13-13-13-13-12-10-10-10-10-/13--12--|
D--------------------------------------------------|

when the solo kicks in:
G----------------------------------------|
D--7-7-7-7-7-7-7-8-8-8-8-7-7-7-7-7-7-7-7-|
A--7-7-7-7-7-7-7-8-8-8-8-7-7-7-7-7-7-7-7-|
D--7-7-7-7-7-7-7-8-8-8-8-7-7-7-7-7-7-7-7-|

i'll add the solo later


Tabbed by: Jimi-James Brewer
---

Almost there ...

Sign in to get your own page with links to favourite songs and more. You are just one click away...

Login with Facebook Login with Google