Log in

One click and you are in

Login with Facebook Login with Google

Why sign up and log in

Guitar Tabs Explorer
Vetiver guitar tabs for Hard to break

Guitar tabs

Album: The Errant Charm (2011)

Capo on the 4th fret


Intro guitar

|-3-1-0--------------------3-1-0-----------------------|
|-------3----3-----3-----3-------3----3-----3-----3----|
|----------2---2h4---2h4------------2---2h4---2h4------|
|------------------------------------------------------|
|------------------------------------------------------|
|------------------------------------------------------|
|-1-0----------------1-0------------------|
|-----3---3---3---3------3---3---3---3----|
|-------4---2---4----------4---2---4------|
|-----------------------------------------|
|-----------------------------------------|
|-----------------------------------------|


Chords used during the verse (repeats a couple of times)

|-----------------0-0-----1----0----|
|-1--3--1--3------1---1-----1--1----|
|-2--4--2--4------0-----0------0----|
|-3--5--3--5-x3---2------------2----|
|-3--5--3--5------3------------3----|
|-1--3--1--3------------------------|


Chorus

|-0--0--0--3-------------------------------------------------|
|-1--0--1--3---5---5------3---3------5---5------5---5--------|
|-2--0--2--4-----5---5-4----4---4-5----5---5-4----4---4-5----|
|-2--2--3--5-------------------------------------------------|
|-0--2--3--5-------------------------------------------------|
|----0-----3-------------------------------------------------|

|----------------------------------------------------------|
|-5---3------3---3------5---3------3---3------5---5--------|
|---5---5-4----4---4-5----5---5-4----4---4-5----5---5-4----|
|----------------------------------------------------------|
|----------------------------------------------------------|
|----------------------------------------------------------|


|-----------------------------------------------------------------|
|-3---3------5---5------5---5------3---3------3---3----1-1-1-1-3--|
|---4---4-5----5---5-4----4---4-5----5---5-4----4---4--2-2-2-2-4--|
|-----------------------------------------------------------------|
|-----------------------------------------------------------------|
|-----------------------------------------------------------------|

Guitar solo

|-----3-----3------------------------1-0---------3---3---5--------7h8--7--|
|-3s5---3s5---5-3-1p0-------0h1----0-----3-1-0----------------------------|
|-----------------------0-0-----2--------------0---0---0----7-5-7---------|
|---------------------0---------------------------------------------------|
|-------------------------------------------------------------------------|
|-------------------------------------------------------------------------|

Segues back to the chorus with this

|0-0-----1----0----|
|1---1-----1--1----|
|0-----0------0----|
|2------------2----|
|3------------3----|
|------------------|

Guitar heard during the outro (repeats)

|-----0----1-0---------------0----1-0------------|
|---1---3------3-1---------1---3------3-1--------|
|-2----------------2-0---2----------------2-0----|
|------------------------------------------------|
|------------------------------------------------|

Almost there ...

Sign in to get your own page with links to favourite songs and more. You are just one click away...

Login with Facebook Login with Google