Log in

One click and you are in

Login with Facebook Login with Google

Why sign up and log in

Guitar Tabs Explorer
Danny Vera bass tabs for Roller coaster

Bass tabs

Tuning: Standard (E A D G)

Difficulty: Novice


Intro:
G|--------------------------------|--------------------------------|
D|--------------------------------|--------------------------------|
A|--------------------------------|--------------------------------|
E|--------------------------------|--------------------------------|
G|--------------------------------|--------------------------------|
D|--------------------------------|--------------------------------|
A|--------------------------------|--------------------------------|
E|5-------------0-5-----------5---|7-------------5-7-----------7---|

G|--------------------------------|
D|--------------------------------|
A|--------------------------------|
E|5-----------------------------0-|


Verse 1:

G|--------------------------------|--------------------------------|
D|--------------------------------|--------------------------------|
A|--------------------------------|--------------------------------|
E|5---------------5-----------5---|7-------------5-7-----------7---|

G|--------------------------------|--------------------------------|
D|--------------------------------|--------------------------------|
A|5---------------5-----------7---|--------------------------------|
E|--------------5-----------------|5---------------5-----------0---|

G|--------------------------------|--------------------------------|
D|--------------------------------|--------------------------------|
A|--------------------------------|--------------------------------|
E|5-------------0-5-----------5---|7-------------5-7-----------7---|

G|--------------------------------|--------------------------------|
D|--------------------------------|--------------------------------|
A|5---------------5-----------7---|--------------------------------|
E|--------------5-----------------|5-------------0-5---0---5---4---|

Bridge:

G|--------------------------------|--------------------------------|
D|--------------------------------|--------------------------------|
A|--------------------------------|--------------------------------|
E|2-------4-------5-------5---4---|2-------4-------5-------5---4---|

G|------------------------|--------------------------------|
D|------------------------|--------------------------------|
A|------------------------|----------------5-------7-----7-|
E|2-------4-------5---0-5-|7-----5-7-----------------------|


Instrumental:

G|--------------------------------|--------------------------------|
D|--------------------------------|--------------------------------|
A|--------------------------------|--------------------------------|
E|5-----0-5---0---5-----0-5---0---|7-----5-7---2---7-----5-7---2---|


Verse 2:

G|--------------------------------|--------------------------------|
D|--------------------------------|--------------------------------|
A|--------------------------------|--------------------------------|
E|5-------------0-5-----------5---|7-------------5-7-----------7---|

G|--------------------------------|--------------------------------|
D|--------------------------------|--------------------------------|
A|5---------------5-----------7---|--------------------------------|
E|--------------5-----------------|5-------------0-5---0---5---4---|


Bridge:

G|--------------------------------|--------------------------------|
D|--------------------------------|--------------------------------|
A|--------------------------------|--------------------------------|
E|2-------4-------5-------5---4---|2-------4-------5-------5---4---|

G|------------------------|--------------------------------|
D|------------------------|--------------------------------|
A|------------------------|----------------5-------7-----7-|
E|2-------4-------5---0-5-|7-----5-7-----------------------|


Chorus:

G|--------------------------------|--------------------------------|
D|--------------------------------|--------------------------------|
A|--------------------------------|2-------2-------2-----0-2-0-2-4-|
E|5---0---5---0---5---0-2-5---0---|----2-------2-------2-----------|

G|--------------------------------|--------------------------------|
D|--------------------------------|--------------------------------|
A|5-------5-0-2-4-5-------5-0-5-7-|--------------------------------|
E|----5---------------5-----------|5---0---5---0---5---0---5---0---|

G|--------------------------------|--------------------------------|
D|--------------------------------|--------------------------------|
A|--------------------------------|2-------2-------2-----0-2-0-2-4-|
E|5---0---5---0---5---0-2-5---0---|----2-------2-------2-----------|

G|--------------------------------|--------------------------------|
D|--------------------------------|--------------------------------|
A|5-------5-0-2-4-5-------5-0-5-7-|--------------------------------|
E|----5---------------5-----------|5---0---5---0---5---0---5---4---|


Bridge:

G|--------------------------------|--------------------------------|
D|--------------------------------|--------------------------------|
A|--------------------------------|--------------------------------|
E|2-------4-------5-------5---4---|2-------4-------5-------5---4---|

G|------------------------|--------------------------------|
D|------------------------|--------------------------------|
A|------------------------|----------------5-------7---7---|
E|2-------4-------5---0-5-|7-----5-7-----------------------|


Chorus:

G|--------------------------------|--------------------------------|
D|--------------------------------|--------------------------------|
A|--------------------------------|2-------2-------2-----0-2-0-2-4-|
E|5---0---5---0---5---0-2-5---0---|----2-------2-------2-----------|

G|--------------------------------|--------------------------------|
D|--------------------------------|--------------------------------|
A|5-------5-0-2-4-5-------5-0-5-7-|--------------------------------|
E|----5---------------5-----------|5---0---5---0---5---0---5---0---|

G|--------------------------------|--------------------------------|
D|--------------------------------|--------------------------------|
A|--------------------------------|2-------2-------2-----0-2-0-2-4-|
E|5---0---5---0---5---0-2-5---0---|----2-------2-------2-----------|

G|--------------------------------|--------------------------------|
D|--------------------------------|--------------------------------|
A|5-------5-0-2-4-5-------5-0-5-7-|--------------------------------|
E|----5---------------5-----------|5---0---5---0---5---0---5---0---|


Outro:

G|--------------------------------|--------------------------------|
D|--------------------------------|--------------------------------|
A|--------------------------------|--------------------------------|
E|5-------------------------------|--------------------------------|

G|--------------------------------|--------------------------------||
D|--------------------------------|--------------------------------||
A|--------------------------------|--------------------------------||
E|--------------------------------|--------------------------------||

Almost there ...

Sign in to get your own page with links to favourite songs and more. You are just one click away...

Login with Facebook Login with Google