Log in

One click and you are in

Login with Facebook Login with Google

Why sign up and log in

Guitar Tabs Explorer
Danny Vera guitar tabs for Roller coaster acoustic

Intro

  • Capo on 2nd
Tuning: Standard (E A D G B E)

Key: A chord diagramG MajorG

Difficulty: Advanced

Rollercoaster   Danny Vera

intro

         A chord diagramG MajorG
e       ----------------|----------------|--------0-------|----------------|
b       3---------1-----|0---------1-----|3---------------|1-------0-------|
g       ----------------|----------------|----------------|----------------|
A chord diagramD MajorD       ----0-------0---|----0-------0---|----0-------0---|----0-------0---|
A chord diagramA majorA       ----------------|----------------|----------------|----------------|
A chord diagramE MajorE       3-------3-------|3-------3-------|3-------3-------|3-------3-------|


         A chord diagramA minorAm
e       ----------------|----------------|----------------|----------------|
b       0-1h------0-----|1---------0-----|0-1h------------|----------------|
g       ----------------|----------------|----------------|2/4-----2---0---|
A chord diagramD MajorD       ----2-------2---|----2-------2---|----2-------2---|----------------|
A chord diagramA majorA       0-------0-------|0-------0-------|0-------0-------|----------------|
A chord diagramE MajorE       ----------------|----------------|----------------|----------------|


         A chord diagramG MajorG
e       ----------------|----------------|--------0-------|----------------|
b       3---------1-----|0---------1-----|3---------------|1-------0-------|
g       ----------------|----------------|----------------|----------------|
A chord diagramD MajorD       ----0-------0---|----0-------0---|----0-------0---|----0-------0---|
A chord diagramA majorA       ----------------|----------------|----------------|----------------|
A chord diagramE MajorE       3-------3-------|3-------3-------|3-------3-------|3-------3-------|


        A chord diagramA minorAm
e       ----------------|----------------|----------------|----------------|
b       0-1h------0-----|1---------0-----|0-1h------------|----------------|
g       ----------------|----------------|----------------|2/4-----2---0---|
A chord diagramD MajorD       ----2-------2---|----2-------2---|----2-------2---|----------------|
A chord diagramA majorA       0-------0-------|0-------0-------|0-------0-------|----------------|
A chord diagramE MajorE       ----------------|----------------|----------------|----------------|

Other versions of Roller Coaster Acoustic

Roller coasterChords
Roller coaster - introTabs

Almost there ...

Sign in to get your own page with links to favourite songs and more. You are just one click away...

Login with Facebook Login with Google