Out Of Limits by The Ventures

Out Of Limits bass tab by The Ventures

Bass tabs

Out Of Limits
Ventures
TablEdited by Poppis
Tuning : E A D G 	Time Signature: 4/4

 tempo 90|    |    |    |    |    |    |
|------------------------9/--7---|--------------------------------|
|--------------------------------|--------------------------------|
|--------------------------------|7---------------7-----------5---|
|--------------------------------|------7---------------7---------|

 |    |    |    |    |    |    |    |
|--------------------------------|--------------------------------|
|--------------------------------|--------------------------------|
|7---------------7-----------5---|7---------------7-----------5---|
|------7-7-------------7-7-------|------7-7-------------7-7-------|

 |    |    |    |    |    |    |    |
|--------------------------------|--------------------------------|
|----------------7---7-------7---|--------------------------------|
|7---7-------7---------7-7-------|7---7-------5---7---7-------5---|
|------7-7-----------------------|------7-7-------------7-7-------|

 |    |    |    |    |    |    |    |
|--------------------------------|--------------------------------|
|--------------------------------|9---------------9---------9-----|
|7---------------7-----------7---|------9-9-------------9-9---9---|
|--------7---7---------7-7-------|--------------------------------|

 |    |    |    |    |    |    |    |
|--------------------------------|--------------------------------|
|--------------------------------|7---7-----------7-7-7-------7---|
|7---------------7-----------7---|------7-7---7---------7-7-------|
|------7-7-------------7-7-------|--------------------------------|

 |    |    |    |    |    |    |    |
|--------------------------------|--------------------------------|
|----------------7---7-------7---|--------------------------------|
|7-----------7---------7-7-------|7---7-------5---7---------------|
|------7-7-----------------------|------7-7-----------------------|

 |    |    |    |    |    |    |    |
|--------------------------------|--------------------------------|
|9-----------9-9-----------------|9-----------9-9-----------------|
|------9-9-------7-----------7---|------9-9-------7-----------7-7-|
|----------------------7-7-------|----------------------7-7-------|

 |    |    |    |    |    |    |    |
|--------------------------------|--------------------------------|
|7---7-----------7---------7-----|--------------------------------|
|------7-7-------------7-7---5---|7---7-----------7---7-------7---|
|--------------------------------|------7-7-------------7-7-------|

 |    |    |    |    |    |    |    |
|--------------------------------|--------------------------------|
|9-----------9-------------------|9-----------9-9-----------------|
|------9-9-------7-----------7---|------9-9-------7-----------7-5-|
|----------------------7-7-------|----------------------7-7-------|

 |    |    |    |    |    |    |    |
|--------------------------------|--------------------------------|
|--------------------------------|--------------------------------|
|3-----------3-3-2-----------2/5-|7---7-------5-5-7-----------7---|
|------3-3-------------2-2-------|------7-7-------------7-7-------|

 |    |    |    |    |    |    |    |
|--------------------------------|--------------------------------|
|9-----------9-------------------|2-------------------------------|
|------9-9-------7-----------5-5-|--------------------------------|
|----------------------7-7-------|--------------------------------|

 |    |    |    |    etcétera|    |    |
|--------------------------------|--------------------------------|
|--------------------------------|----------------7---7-------7---|
|7---------------7-----------5---|7---7-------7---------7-7-------|
|------7-7-------------7-7-------|--------7-----------------------|


m/

Find guitar tabs and chords

A B C D E F G H I J K L M N O P Q R S T U V W X Y Z #