My Blue Heaven by The Ventures

My Blue Heaven bass tab by The Ventures

Bass tabs

ventures_my blue heaven

Basstab by Jan Bjorklund, Finland

You are welcome to request for basstabs!
Fingering and positions as suggested by TablEdit,
please use common sense!

TablEdited by Jan Bjorklund
Tuning : E A D G 	Time Signature: 4/4

 |    |    |    |     |    |    |
   |
|-----------------0-------2--------|-----------------0-------2--------|
|---------2------------------------|---------2------------------------|
|-3--------------------------------|-3--------------------------------|
|----------------------------------|----------------------------------|

 |    |    |    |     |    |    |
   |
|-----------------0-------2--------|-----------------0-------2--------|
|---------2------------------------|---------2------------------------|
|-3--------------------------------|-3--------------------------------|
|----------------------------------|----------------------------------|

 |    |    |    |     |    |    |
   |
|----------------------------------|----------------------------------|
|-----------------0-------2--------|-----------------0-------2--------|
|---------2------------------------|---------2------------------------|
|-3--------------------------------|-3--------------------------------|

 |    |    |    |     |    |    |
   |
|-----------------0-------2--------|-----------------0-------2--------|
|---------2------------------------|---------2------------------------|
|-3--------------------------------|-3--------------------------------|
|----------------------------------|----------------------------------|

 |    |    |    |     |    |    |
   |
|-----------------0-------2--------|-----------------0-------2--------|
|---------2------------------------|---------2------------------------|
|-3--------------------------------|-3--------------------------------|
|----------------------------------|----------------------------------|

 |    |    |    |     |    |    |
   |
|-----------------0-------2--------|-----------------0-------2--------|
|---------2------------------------|---------2------------------------|
|-3--------------------------------|-3--------------------------------|
|----------------------------------|----------------------------------|

 |    |    |    |     |    |    |
   |
|----------------------------------|----------------------------------|
|-----------------0-------2--------|-----------------0-------2--------|
|---------2------------------------|---------2------------------------|
|-3--------------------------------|-3--------------------------------|

 |    |    |    |     |    |    |
   |
|-----------------0-------2--------|-----------------0-------2--------|
|---------2------------------------|---------2------------------------|
|-3--------------------------------|-3--------------------------------|
|----------------------------------|----------------------------------|

 |    |    |    |     |    |    |
   |
|---------2-------5-------2--------|-----------------4----------------|
|-3--------------------------------|-2-------5---------------5--------|
|----------------------------------|----------------------------------|
|----------------------------------|----------------------------------|

 |    |    |    |     |    |    |
   |
|-----------------2----------------|-----------------2----------------|
|-0-------3---------------3--------|-0-------3---------------3--------|
|----------------------------------|----------------------------------|
|----------------------------------|----------------------------------|

 |    |    |    |     |    |    |
   |
|----------------------------------|----------------------------------|
|-----------------0----------------|-----------------0----------------|
|---------2---------------2--------|---------2---------------2--------|
|-3--------------------------------|-3--------------------------------|

 |    |    |    |     |    |    |
   |
|-----------------0----------------|----------------------------------|
|---------2---------------2--------|----------------------------------|
|-3--------------------------------|-3--------------------------------|
|----------------------------------|----------------------------------|

 |    |    |    |     |    |    |
   |
|-----------------0-------2--------|-----------------0-------2--------|
|---------2------------------------|---------2------------------------|
|-3--------------------------------|-3--------------------------------|
|----------------------------------|----------------------------------|

 |    |    |    |     |    |    |
   |
|-----------------0-------2--------|-----------------0-------2--------|
|---------2------------------------|---------2------------------------|
|-3--------------------------------|-3--------------------------------|
|----------------------------------|----------------------------------|

 |    |    |    |     |    |    |
   |
|----------------------------------|----------------------------------|
|-----------------0-------2--------|-----------------0-------2--------|
|---------2------------------------|---------2------------------------|
|-3--------------------------------|-3--------------------------------|

 |    |    |    |     |    |    |
   |
|-----------------0-------2--------|----------------------------------|
|---------2------------------------|----------------------------------|
|-3--------------------------------|-3--------------------------------|
|----------------------------------|----------------------------------|

 |    |    |    |     |    |    |
   |
|-----------------1-------3--------|-----------------1-------3--------|
|---------3------------------------|---------3------------------------|
|-4--------------------------------|-4--------------------------------|
|----------------------------------|----------------------------------|

 |    |    |    |     |    |    |
   |
|-----------------1-------3--------|-----------------1-------3--------|
|---------3------------------------|---------3------------------------|
|-4--------------------------------|-4--------------------------------|
|----------------------------------|----------------------------------|

 |    |    |    |     |    |    |
   |
|----------------------------------|----------------------------------|
|-----------------1-------3--------|-----------------1-------3--------|
|---------3------------------------|---------3------------------------|
|-4--------------------------------|-4--------------------------------|

 |    |    |    |     |    |    |
   |
|-----------------1-------3--------|-----------------1-------3--------|
|---------3------------------------|---------3------------------------|
|-4--------------------------------|-4--------------------------------|
|----------------------------------|----------------------------------|

 |    |    |    |     |    |    |
   |
|-----------------1-------3--------|-----------------1-------3--------|
|---------3------------------------|---------3------------------------|
|-4--------------------------------|-4--------------------------------|
|----------------------------------|----------------------------------|

 |    |    |    |     |    |    |
   |
|-----------------1-------3--------|-----------------1-------3--------|
|---------3------------------------|---------3------------------------|
|-4--------------------------------|-4--------------------------------|
|----------------------------------|----------------------------------|

 |    |    |    |     |    |    |
   |
|----------------------------------|----------------------------------|
|-----------------1-------3--------|-----------------1-------3--------|
|---------3------------------------|---------3------------------------|
|-4--------------------------------|-4--------------------------------|

 |    |    |    |     |    |    |
   |
|-----------------1-------3--------|-----------------1-------3--------|
|---------3------------------------|---------3------------------------|
|-4--------------------------------|-4--------------------------------|
|----------------------------------|----------------------------------|

 |    |    |    |     |    |    |
   |
|---------3-------6-------3--------|-----------------5----------------|
|-4--------------------------------|-3-------6---------------6--------|
|----------------------------------|----------------------------------|
|----------------------------------|----------------------------------|

 |    |    |    |     |    |    |
   |
|-----------------3----------------|-----------------3----------------|
|-1-------4---------------4--------|-1-------4---------------4--------|
|----------------------------------|----------------------------------|
|----------------------------------|----------------------------------|

 |    |    |    |     |    |    |
   |
|----------------------------------|----------------------------------|
|-----------------1----------------|-----------------1----------------|
|---------3---------------3--------|---------3---------------3--------|
|-4--------------------------------|-4--------------------------------|

 |    |    |    |     |    |    |
   |
|-----------------1----------------|----------------------------------|
|---------3---------------3--------|----------------------------------|
|-4--------------------------------|-4--------------------------------|
|----------------------------------|----------------------------------|

 |    |    |    |     |    |    |
   |
|-----------------2-------4--------|-----------------2-------4--------|
|---------4------------------------|---------4------------------------|
|-5--------------------------------|-5--------------------------------|
|----------------------------------|----------------------------------|

 |    |    |    |     |    |    |
   |
|-----------------2-------4--------|-----------------2-------4--------|
|---------4------------------------|---------4------------------------|
|-5--------------------------------|-5--------------------------------|
|----------------------------------|----------------------------------|

 |    |    |    |     |    |    |
   |
|----------------------------------|----------------------------------|
|-----------------2-------4--------|-----------------2-------4--------|
|-0-------4------------------------|-0-------4------------------------|
|----------------------------------|----------------------------------|

 |    |    |    |     |    |    |
   |
|-----------------2-------4--------|-----------------2-------4--------|
|---------4------------------------|---------4------------------------|
|-5--------------------------------|-5--------------------------------|
|----------------------------------|----------------------------------|

 |    |    |    |     |    |    |
   |
|----------------------------------|----------------------------------|
|-----------------2-------4--------|-----------------2-------4--------|
|-0-------4------------------------|-0-------4------------------------|
|----------------------------------|----------------------------------|

 |    |    |    |     |    |    |
   |
|-----------------2-------4--------|----------------------------------|
|---------4------------------------|-0--------------------------------|
|-5--------------------------------|----------------------------------|
|----------------------------------|----------------------------------|



m/

Find guitar tabs and chords

A B C D E F G H I J K L M N O P Q R S T U V W X Y Z #