Moore by The Ventures

Moore bass tab by The Ventures

Bass tabs

Ventures_Moore

Basstab by Jan Bjorklund, Finland

You are welcome to request for basstabs!
Fingering and positions as suggested by TablEdit,
please use common sense!

TablEdited by Jan Bjorklund
Tuning : E A D G 	Time Signature: 4/4

 |    |    |    |     |    |    |
   |
|----------------------------------|----------------------------------|
|----------------------------------|----------------------------------|
|----------------------------------|-----------------1-------3--------|
|-3---------------1----------------|----------------------------------|

 |    |    |    |     |    |    |
   |
|----------------------------------|----------------------------------|
|----------------------------------|----------------------------------|
|----------------------------------|-----------------1----------------|
|-3---------------1----------------|----------------------------------|

 |    |    |    |     |    |    |
   |
|----------------------------------|----------------------------------|
|----------------------------------|----------------------------------|
|----------------------------------|----------------------------------|
|-3--------------------------------|-0--------------------------------|

 |    |    |    |     |    |    |
   |
|----------------------------------|----------------------------------|
|----------------------------------|-0--------------------------------|
|-0--------------------------------|----------------------------------|
|----------------------------------|----------------------------------|

 |    |    |    |     |    |    |
   |
|----------------------------------|----------------------------------|
|----------------------------------|----------------------------------|
|----------------------------------|----------------------------------|
|-3--------------------------------|-0--------------------------------|

 |    |    |    |     |    |    |
   |
|----------------------------------|----------------------------------|
|----------------------------------|-0--------------------------------|
|-0--------------------------------|----------------------------------|
|----------------------------------|----------------------------------|

 |    |    |    |     |    |    |
   |
|----------------------------------|----------------------------------|
|----------------------------------|----------------------------------|
|----------------------------------|----------------------------------|
|-3--------------------------------|-0--------------------------------|

 |    |    |    |     |    |    |
   |
|----------------------------------|----------------------------------|
|----------------------------------|-0--------------------------------|
|-0--------------------------------|----------------------------------|
|----------------------------------|----------------------------------|

 |    |    |    |     |    |    |
   |
|----------------------------------|----------------------------------|
|----------------------------------|----------------------------------|
|----------------------------------|----------------------------------|
|-3--------------------------------|-0--------------------------------|

 |    |    |    |     |    |    |
   |
|----------------------------------|----------------------------------|
|----------------------------------|-0--------------------------------|
|-0--------------------------------|-----------------2----------------|
|----------------------------------|----------------------------------|

 |    |    |    |     |    |    |
   |
|-------------------------7--------|-------------7--------------------|
|-5--------------------------------|-7-----------------------4--------|
|----------------------------------|----------------------------------|
|----------------------------------|----------------------------------|

 |    |    |    |     |    |    |
   |
|-------------------------7--------|-------------7--------------------|
|-5--------------------------------|-7-----------------------4--------|
|----------------------------------|----------------------------------|
|----------------------------------|----------------------------------|

 |    |    |    |     |    |    |
   |
|-------------------------7--------|----------------------------------|
|-5--------------------------------|-2--------------------------------|
|----------------------------------|----------------------------------|
|----------------------------------|----------------------------------|

 |    |    |    |     |    |    |
   |
|-2--------------------------------|----------------------------------|
|----------------------------------|-4--------------------------------|
|----------------------------------|----------------------------------|
|----------------------------------|----------------------------------|

 |    |    |    |     |    |    |
   |
|-0-----------0--------------------|----------------------------------|
|----------------------------------|-2-----------2--------------------|
|----------------------------------|----------------------------------|
|----------------------------------|----------------------------------|

 |    |    |    |     |    |    |
   |
|-2-----------2--------------------|----------------------------------|
|----------------------------------|-0-----------0--------------------|
|----------------------------------|----------------------------------|
|----------------------------------|----------------------------------|

 |    |    |    |     |    |    |
   |
|-0-----------0--------------------|----------------------------------|
|----------------------------------|-2-----------2--------------------|
|----------------------------------|----------------------------------|
|----------------------------------|----------------------------------|

 |    |    |    |     |    |    |
   |
|-2-----------2--------------------|----------------------------------|
|----------------------------------|-0--------------------------------|
|----------------------------------|-------------2--------------------|
|----------------------------------|----------------------------------|

 |    |    |    |     |    |    |
   |
|-------------------------7--------|-------------7--------------------|
|-5--------------------------------|-7-----------------------4--------|
|----------------------------------|----------------------------------|
|----------------------------------|----------------------------------|

 |    |    |    |     |    |    |
   |
|-------------------------7--------|-------------7--------------------|
|-5--------------------------------|-7-----------------------4--------|
|----------------------------------|----------------------------------|
|----------------------------------|----------------------------------|

 |    |    |    |     |    |    |
   |
|-------------------------7--------|-2--------------------------------|
|-5--------------------------------|----------------------------------|
|----------------------------------|----------------------------------|
|----------------------------------|----------------------------------|

 |    |    |    |     |    |    |
   |
|-0--------------------------------|----------------------------------|
|----------------------------------|-1--------------------------------|
|----------------------------------|----------------------------------|
|----------------------------------|----------------------------------|

 |    |    |    |     |    |    |
   |
|----------------------------------|----------------------------------|
|----------------------------------|----------------------------------|
|----------------------------------|----------------------------------|
|-4--------------------------------|-1--------------------------------|

 |    |    |    |     |    |    |
   |
|----------------------------------|----------------------------------|
|----------------------------------|-1--------------------------------|
|-1--------------------------------|----------------------------------|
|----------------------------------|----------------------------------|

 |    |    |    |     |    |    |
   |
|----------------------------------|----------------------------------|
|----------------------------------|----------------------------------|
|----------------------------------|----------------------------------|
|-4--------------------------------|-1--------------------------------|

 |    |    |    |     |    |    |
   |
|----------------------------------|----------------------------------|
|----------------------------------|-1--------------------------------|
|-1--------------------------------|-----------------3----------------|
|----------------------------------|----------------------------------|

 |    |    |    |     |    |    |
   |
|-------------------------8--------|-------------8--------------------|
|-6--------------------------------|-8-----------------------5--------|
|----------------------------------|----------------------------------|
|----------------------------------|----------------------------------|

 |    |    |    |     |    |    |
   |
|-------------------------8--------|-------------8--------------------|
|-6--------------------------------|-8-----------------------5--------|
|----------------------------------|----------------------------------|
|----------------------------------|----------------------------------|

 |    |    |    |     |    |    |
   |
|-------------------------8--------|-3--------------------------------|
|-6--------------------------------|----------------------------------|
|----------------------------------|----------------------------------|
|----------------------------------|----------------------------------|

 |    |    |    |     |    |    |
   |
|-1-----------1--------------------|----------------------------------|
|----------------------------------|-4-----------4--------------------|
|----------------------------------|----------------------------------|
|----------------------------------|----------------------------------|

 |    |    |    |     |    |    |
   |
|-1-----------1--------------------|----------------------------------|
|----------------------------------|-4-----------4--------------------|
|----------------------------------|----------------------------------|
|----------------------------------|----------------------------------|

 |    |    |    |     |    |    |
   |
|-1-----------1--------------------|----------------------------------|
|----------------------------------|-4-----------4--------------------|
|----------------------------------|----------------------------------|
|----------------------------------|----------------------------------|

 |    |    |    |     |    |    |
   |
|-1-----------1--------------------|----------------------------------|
|----------------------------------|-4-----------4--------------------|
|----------------------------------|----------------------------------|
|----------------------------------|----------------------------------|

 |    |    |    |     |    |    |
   |
|-1-----------1--------------------|----------------------------------|
|----------------------------------|-4-----------4--------------------|
|----------------------------------|----------------------------------|
|----------------------------------|----------------------------------|




m/

Find guitar tabs and chords

A B C D E F G H I J K L M N O P Q R S T U V W X Y Z #