Moon Child by The Ventures

Moon Child bass tab by The Ventures

Bass tabs

Ventures_Moon Child

Basstab by Jan Bjorklund, Finland

You are welcome to request for basstabs!
Fingering and positions as suggested by TablEdit,
please use common sense!

TablEdited by Jan Bjorklund
Tuning : E A D G 	Time Signature: 4/4

 |    |    |    |     |    |    |
   |
|----------------------------------|----------------------------------|
|-------------------------0--------|-3--------------------------------|
|-----------------2----------------|-------------3---0----------------|
|-3-----------3--------------------|-------------------------1--------|

 |    |    |    |     |    |    |
   |
|----------------------------------|----------------------------------|
|-------------------------0--------|-3--------------------------------|
|-----------------2----------------|-------------3---0----------------|
|-3-----------3--------------------|-------------------------1--------|

 |    |    |    |     |    |    |
   |
|----------------------------------|-0--------------------------------|
|-------------------------0--------|-------------0--------------------|
|-----------------2----------------|-----------------2----------------|
|-3-----------3--------------------|-------------------------3--------|

 |    |    |    |     |    |    |
   |
|----------------------------------|----------------------------------|
|-----------------0----------------|-0-----------0--------------------|
|-3-----------3-----------0--------|-----------------2-------2--------|
|----------------------------------|----------------------------------|

 |    |    |    |     |    |    |
   |
|----------------------------------|----------------------------------|
|----------------------------------|----------------------------------|
|-------------------------2--------|-----------------0-------3--------|
|-0-----------0---3----------------|-1-----------1--------------------|

 |    |    |    |     |    |    |
   |
|----------------------------------|-0--------------------------------|
|-------------------------0--------|-------------0--------------------|
|-----------------2----------------|-----------------2----------------|
|-3-----------3--------------------|-------------------------3--------|

 |    |    |    |     |    |    |
   |
|----------------------------------|----------------------------------|
|-------------------------2--------|-0-----------0-----------0--------|
|-0-----------0---4----------------|-----------------0----------------|
|----------------------------------|----------------------------------|

 |    |    |    |     |    |    |
   |
|----------------------------------|----------------------------------|
|-------------------------0--------|----------------------------------|
|-----------------2----------------|-3-----------3-----------3--------|
|-3-----------3--------------------|-----------------3----------------|

 |    |    |    |     |    |    |
   |
|----------------------------------|----------------------------------|
|----------------------------------|-3--------------------------------|
|-----------------0-------3--------|-------------3---0----------------|
|-1-----------1--------------------|-------------------------1--------|

 |    |    |    |     |    |    |
   |
|----------------------------------|----------------------------------|
|-------------------------0--------|-----------------0----------------|
|-----------------2----------------|----------------------------------|
|-3-----------3--------------------|-3-----------3-----------0--------|

 |    |    |    |     |    |    |
   |
|----------------------------------|-0--------------------------------|
|-------------------------0--------|-------------0--------------------|
|-----------------2----------------|-----------------2----------------|
|-3-----------3--------------------|-------------------------3--------|

 |    |    |    |     |    |    |
   |
|----------------------------------|----------------------------------|
|-----------------0----------------|-0-----------0--------------------|
|-3-----------3-----------0--------|-----------------2-------2--------|
|----------------------------------|----------------------------------|

 |    |    |    |     |    |    |
   |
|----------------------------------|----------------------------------|
|----------------------------------|----------------------------------|
|-------------------------2--------|-----------------0-------3--------|
|-0-----------0---3----------------|-1-----------1--------------------|

 |    |    |    |     |    |    |
   |
|----------------------------------|-0--------------------------------|
|-------------------------0--------|-------------0--------------------|
|-----------------2----------------|-----------------2----------------|
|-3-----------3--------------------|-------------------------3--------|

 |    |    |    |     |    |    |
   |
|----------------------------------|----------------------------------|
|-------------------------2--------|-0-----------0-----------0--------|
|-0-----------0---4----------------|-----------------0----------------|
|----------------------------------|----------------------------------|

 |    |    |    |     |    |    |
   |
|----------------------------------|----------------------------------|
|-------------------------0--------|----------------------------------|
|-----------------2----------------|-3-----------3-----------3--------|
|-3-----------3--------------------|-----------------3----------------|

 |    |    |    |     |    |    |
   |
|----------------------------------|----------------------------------|
|----------------------------------|-3--------------------------------|
|-----------------0-------3--------|-------------3---0----------------|
|-1-----------1--------------------|-------------------------1--------|

 |    |    |    |     |    |    |
   |
|----------------------------------|-0--------------------------------|
|-------------------------0--------|----------------------------------|
|-----------------2----------------|-----------------0-------2--------|
|-3-----------3--------------------|-------------3--------------------|

 |    |    |    |     |    |    |
   |
|-------------------------0--------|----------------------------------|
|-----------------2----------------|----------------------------------|
|-3-----------3--------------------|-3-----------3---2-------0--------|
|----------------------------------|----------------------------------|

 |    |    |    |     |    |    |
   |
|----------------------------------|----------------------------------|
|-------------------------0--------|-0-----------0--------------------|
|-----------------2----------------|-----------------2-------2--------|
|-3-----------3--------------------|----------------------------------|

 |    |    |    |     |    |    |
   |
|----------------------------------|----------------------------------|
|----------------------------------|-------------------------2--------|
|-------------------------2--------|-0-----------0---4----------------|
|-0-----------0---3----------------|----------------------------------|

 |    |    |    |     |    |    |
   |
|----------------------------------|----------------------------------|
|-------------------------2--------|-0--------------------------------|
|-0-----------0---3----------------|---------3-------2-------0--------|
|----------------------------------|----------------------------------|

 |    |    |    |     |    |    |
   |
|----------------------------------|-0--------------------------------|
|-------------------------0--------|-------------0--------------------|
|-----------------2----------------|-----------------2----------------|
|-3-----------3--------------------|-------------------------3--------|

 |    |    |    |     |    |    |
   |
|----------------------------------|----------------------------------|
|-----------------0----------------|-0-----------0--------------------|
|-3-----------3-----------0--------|-----------------2-------2--------|
|----------------------------------|----------------------------------|

 |    |    |    |     |    |    |
   |
|----------------------------------|----------------------------------|
|----------------------------------|----------------------------------|
|-------------------------2--------|-----------------0-------3--------|
|-0-----------0---3----------------|-1-----------1--------------------|

 |    |    |    |     |    |    |
   |
|----------------------------------|-0--------------------------------|
|-------------------------0--------|-------------0--------------------|
|-----------------2----------------|-----------------2----------------|
|-3-----------3--------------------|-------------------------3--------|

 |    |    |    |     |    |    |
   |
|----------------------------------|----------------------------------|
|-------------------------2--------|-0-----------0-----------0--------|
|-0-----------0---4----------------|-----------------0----------------|
|----------------------------------|----------------------------------|

 |    |    |    |     |    |    |
   |
|----------------------------------|----------------------------------|
|-------------------------0--------|----------------------------------|
|-----------------2----------------|-3-----------3-----------3--------|
|-3-----------3--------------------|-----------------3----------------|

 |    |    |    |     |    |    |
   |
|----------------------------------|----------------------------------|
|----------------------------------|-3--------------------------------|
|-----------------0-------3--------|-------------3---0----------------|
|-1-----------1--------------------|-------------------------1--------|

 |    |    |    |     |    |    |
   |
|----------------------------------|----------------------------------|
|----------------------------------|----------------------------------|
|-----------------0-------3--------|----------------------------------|
|-1-----------1--------------------|-1--------------------------------|

 |    |    |    |     |    |    |
   |
|----------------------------------|----------------------------------|
|-------------------------0--------|-3--------------------------------|
|-----------------2----------------|-------------3---0----------------|
|-3-----------3--------------------|-------------------------1--------|

 |    |    |    |     |    |    |
   |
|----------------------------------|----------------------------------|
|-------------------------0--------|-3--------------------------------|
|-----------------2----------------|-------------3---0----------------|
|-3-----------3--------------------|-------------------------1--------|

 |    |    |    |     |    |    |
   |
|----------------------------------|----------------------------------|
|-------------------------0--------|-3--------------------------------|
|-----------------2----------------|-------------3---0----------------|
|-3-----------3--------------------|-------------------------1--------|

 |    |    |    |     |    |    |
   |
|----------------------------------|-0--------------------------------|
|-------------------------0--------|-------------0--------------------|
|-----------------2----------------|-----------------2----------------|
|-3-----------3--------------------|-------------------------3--------|

 |    |    |    |
|----------------------------------|
|----------------------------------|
|----------------------------------|
|-3--------------------------------|


m/

Find guitar tabs and chords

A B C D E F G H I J K L M N O P Q R S T U V W X Y Z #