Miss Brand New Day by The Ventures

Miss Brand New Day bass tab by The Ventures

Bass tabs

THE VENTURES - MISS BRAND NEW DAY
    From PLAY SOUTHERN ALL STARS album. Released on April 1990.

  -----------------------------------------------------------------







   INTRO


 G|---------------------------------|---------------------------------|
 D|---------------------------------|---------------------------------|
 A|---------------------------------|---------------------------------|
 E|---------------------------------|---------------------------------|





 G|---------------------------------|---------------------------------|
 D|---------------------------------|---------------------------------|
 A|---------------------------------|---------------------------------|
 E|---------------------------------|---------------------------------|





 G|---------------------------------|---------------------------------|
 D|---------------------------------|---------------------------------|
 A|---------------------------------|---------------------------------|
 E|---------------------------------|---------------------------------|




   00:10

 G|---------------------------------|---------------------------------|
 D|---------------------------------|---------------------------------|
 A|---------------------------------|---------------------------------|
 E|---------------------------------|---------------------------------|





 G|---------------------------------|---------------------------------|
 D|---------------------------------|---------------------------------|
 A|---------------------------------|---------------------------------|
 E|---------------------------------|---------------------------------|




   00:17

 G|---------------------------------|---------------------------------|
 D|-7---7---7---7---7---7---7---7---|-7---7---7---7---7---7---7---7---|
 A|---------------------------------|---------------------------------|
 E|---------------------------------|---------------------------------|





 G|---------------------------------|---------------------------------|
 D|-5---5---5---5---5---5---5---5---|---------------------------------|
 A|---------------------------------|-3---3---3---3---2---2---2---2---|
 E|---------------------------------|---------------------------------|





 G|---------------------------------|---------------------------------|
 D|-7---7---7---7---7---7---7---7---|-7---7---7---7---7---7---7---7---|
 A|---------------------------------|---------------------------------|
 E|---------------------------------|---------------------------------|





 G|---------------------------------|---------------------------------|
 D|-5---5---5---5---5---5---5---5---|---------------------------------|
 A|---------------------------------|-3---3---3---3---2---2---2---2---|
 E|---------------------------------|---------------------------------|




   00:32

 G|---------------------------------|---------------------------------|
 D|-7---7---7---7---7---7---7---7---|-3---3---3---3---3---3---3---3---|
 A|---------------------------------|---------------------------------|
 E|---------------------------------|---------------------------------|





 G|---------------------------------|---------------------------------|
 D|-5---5---5---5---5---5---5---5---|---------------------------------|
 A|---------------------------------|-3---3---3---3---2---2---2---2---|
 E|---------------------------------|---------------------------------|





 G|---------------------------------|---------------------------------|
 D|-7---7---7---7---7---7---7---7---|-3---3---3---3---3---3---3---3---|
 A|---------------------------------|---------------------------------|
 E|---------------------------------|---------------------------------|





 G|---------------------------------|---------------------------------|
 D|-5---5---5---5---5---5---5---5---|-5---5---5---5---5---5---5---5---|
 A|---------------------------------|---------------------------------|
 E|---------------------------------|---------------------------------|





   VERSE
   00:46

 G|---------------------------------|---------------------------------|
 D|---------------------------------|---------------------------------|
 A|-3---3---3---3---3---3---3---3---|-2---2---2---2---2---2---2---2---|
 E|---------------------------------|---------------------------------|





 G|---------------------------------|---------------------------------|
 D|---------------------------------|---------------------------------|
 A|-0---0---0---0---0---0---0---0---|---------------------------------|
 E|---------------------------------|-3---3---3---3---3---3---3---3---|





 G|---------------------------------|---------------------------------|
 D|-3---3---3---3---3---3---3---3---|---------------------------------|
 A|---------------------------------|-3---3---3---3---3---3---3---3---|
 E|---------------------------------|---------------------------------|





 G|---------------------------------|---------------------------------|
 D|-5---5---5---5---5---5---5---5---|-3---3---3---3---3---3---3---3---|
 A|---------------------------------|---------------------------------|
 E|---------------------------------|---------------------------------|




   01:00

 G|---------------------------------|---------------------------------|
 D|---------------------------------|-7-------7---7---7---7---7---7---|
 A|-7---7---7---7---7---7---7---7---|---------------------------------|
 E|---------------------------------|---------------------------------|





 G|---------------------------------|---------------------------------|
 D|---------------------------------|-5---5---5---5---5---5---5---5---|
 A|-5---5---5---5---5---5---5---5---|---------------------------------|
 E|---------------------------------|---------------------------------|





 G|---------------------------------|---------------------------------|
 D|---------------------------------|-7---7---7---7---7---7---7---7---|
 A|-7---7---7---7---7---7---7---7---|---------------------------------|
 E|---------------------------------|---------------------------------|





 G|---------------------------------|---------------------------------|
 D|---------------------------------|-5---5---5---5---5---5---5---5---|
 A|-5---5---5---5---5---5---5---5---|---------------------------------|
 E|---------------------------------|---------------------------------|





   VERSE
   01:14

 G|---------------------------------|---------------------------------|
 D|---------------------------------|---------------------------------|
 A|-3---3---3---3---3---3---3---3---|-2---2---2---2---2---2---2---2---|
 E|---------------------------------|---------------------------------|





 G|---------------------------------|---------------------------------|
 D|---------------------------------|---------------------------------|
 A|-0---0---0---0---0---0---0---0---|---------------------------------|
 E|---------------------------------|-3---3---3---3---3---3---3---3---|





 G|---------------------------------|---------------------------------|
 D|-3---x---3---3---3---3---3---3---|---------------------------------|
 A|---------------------------------|-3---3---3---3---3---3---3---3---|
 E|---------------------------------|---------------------------------|





 G|---------------------------------|---------------------------------|
 D|-5-------5---5---5---5---5---5---|-3---3---3---3---3---3---3---3---|
 A|---------------------------------|---------------------------------|
 E|---------------------------------|---------------------------------|




   01:28

 G|---------------------------------|---------------------------------|
 D|---------------------------------|-7---7---7---7---7---7---7---7---|
 A|-7---7---7---7---7---7---7---7---|---------------------------------|
 E|---------------------------------|---------------------------------|





 G|---------------------------------|---------------------------------|
 D|---------------------------------|-5---5---5---5---5---5---5---5---|
 A|-5---5---5---5---5---5---5---5---|---------------------------------|
 E|---------------------------------|---------------------------------|





 G|---------------------------------|---------------------------------|
 D|---------------------------------|-7---7---7---7---7---7---7---7---|
 A|-7---7---7---7---7---7---7---7---|---------------------------------|
 E|---------------------------------|---------------------------------|





 G|---------------------------------|---------------------------------|
 D|---------------------------------|-5---5---5---5---5---5---5---5---|
 A|-5---5---5---5---5---5---5---5---|---------------------------------|
 E|---------------------------------|---------------------------------|





   BRIDGE
   01:42

 G|---------------------------------|---------------------------------|
 D|-3---3---3---3---3---3---3---3---|-5---5---5---5---5---5---5---5---|
 A|---------------------------------|---------------------------------|
 E|---------------------------------|---------------------------------|





 G|---------------------------------|---------------------------------|
 D|---------------------------------|-7---7---7---7---7---7---7---7---|
 A|-7---7---7---7---7---7---7---7---|---------------------------------|
 E|---------------------------------|---------------------------------|





 G|---------------------------------|---------------------------------|
 D|-3---3---3---3---3---3---3---3---|---------------------------------|
 A|---------------------------------|-5---5---5---5---3---3---3---3---|
 E|---------------------------------|---------------------------------|





 G|---------------------------------|---------------------------------|
 D|-5---5---5---5---3---3---3---3---|---------------------------------|
 A|---------------------------------|-7---7---7---7---7---7---7---7---|
 E|---------------------------------|---------------------------------|





   VERSE
   01:56

 G|---------------------------------|---------------------------------|
 D|-7---7---7---7---7---7---7---7---|-3---3---3---3---3---3---3---3---|
 A|---------------------------------|---------------------------------|
 E|---------------------------------|---------------------------------|





 G|---------------------------------|---------------------------------|
 D|-5---5---5---5---3---3---3---3---|-2---2---2---2---2---2---2---2---|
 A|---------------------------------|---------------------------------|
 E|---------------------------------|---------------------------------|





 G|---------------------------------|---------------------------------|
 D|-7---7---7---7---7---7---7---7---|---------------------------------|
 A|---------------------------------|-5---5---5---5---5---5---5---5---|
 E|---------------------------------|---------------------------------|





 G|---------------------------------|---------------------------------|
 D|-5---5---5---5---5---5---5---5---|-5---5---5---5---5---5---5---5---|
 A|---------------------------------|---------------------------------|
 E|---------------------------------|---------------------------------|




   02:10

 G|---------------------------------|---------------------------------|
 D|-7---7---7---7---7---7---7---7---|-3---3---3---3---3---3---3---3---|
 A|---------------------------------|---------------------------------|
 E|---------------------------------|---------------------------------|





 G|---------------------------------|---------------------------------|
 D|-5---5---5---5---3---3---3---3---|-2---2---2---2---2---2---2---2---|
 A|---------------------------------|---------------------------------|
 E|---------------------------------|---------------------------------|





 G|---------------------------------|---------------------------------|
 D|-3---3---3---3---3---3---3---3---|-5---5---5---5---5---5---5---5---|
 A|---------------------------------|---------------------------------|
 E|---------------------------------|---------------------------------|





 G|---------------------------------|---------------------------------|
 D|-7---7---7---7---7---7---7---7---|-7---7---7---7---7---7---7---7---|
 A|-0---0---0---0---0---0---0---0---|-0---0---0---0---0---0---0---0---|
 E|---------------------------------|---------------------------------|





 G|---------------------------------|---------------------------------|
 D|-7---7---7---7---7---7---7---7---|-7---7---7---7---7---7---7---7---|
 A|-0---0---0---0---0---0---0---0---|-0---0---0---0---0---0---0---0---|
 E|---------------------------------|---------------------------------|





   INTERLUDE
   02:28

 G|---------------------------------|---------------------------------|
 D|-7---7---7---7---7---7---7---7---|-3---3---3---3---3---3---3---3---|
 A|---------------------------------|---------------------------------|
 E|---------------------------------|---------------------------------|





 G|---------------------------------|---------------------------------|
 D|-5---5---5---5---5---5---5---5---|---------------------------------|
 A|---------------------------------|-3---3---3---3---2---2---2---2---|
 E|---------------------------------|---------------------------------|





 G|---------------------------------|---------------------------------|
 D|-7---7---7---7---7---7---7---7---|-3---3---3---3---3---3---3---3---|
 A|---------------------------------|---------------------------------|
 E|---------------------------------|---------------------------------|





 G|---------------------------------|---------------------------------|
 D|-5---5---5---5---5---5---5---5---|-5---5---5---5---5---5---5---5---|
 A|---------------------------------|---------------------------------|
 E|---------------------------------|---------------------------------|





   VERSE
   02:42

 G|---------------------------------|---------------------------------|
 D|---------------------------------|---------------------------------|
 A|-3---3---3---3---3---3---3---3---|-2---2---2---2---2---2---2---2---|
 E|---------------------------------|---------------------------------|





 G|---------------------------------|---------------------------------|
 D|---------------------------------|---------------------------------|
 A|-0---0---0---0---0---0---0---0---|---------------------------------|
 E|---------------------------------|-3---3---3---3---3---3---3---3---|





 G|---------------------------------|---------------------------------|
 D|-3---3---3---3---3---3---3---3---|---------------------------------|
 A|---------------------------------|-3---3---3---3---3---3---3---3---|
 E|---------------------------------|---------------------------------|





 G|---------------------------------|---------------------------------|
 D|-5---5---5---5---5---5---5---5---|-3---3---3---3---3---3---3---3---|
 A|---------------------------------|---------------------------------|
 E|---------------------------------|---------------------------------|




   02:56

 G|---------------------------------|---------------------------------|
 D|---------------------------------|-7---7---7---7---7---7---7---7---|
 A|-7---7---7---7---7---7---7---7---|---------------------------------|
 E|---------------------------------|---------------------------------|





 G|---------------------------------|---------------------------------|
 D|---------------------------------|-5---5---5---5---5---5---5---5---|
 A|-5---5---5---5---5---5---5---5---|---------------------------------|
 E|---------------------------------|---------------------------------|





 G|---------------------------------|---------------------------------|
 D|---------------------------------|-7---7---7---7---7---7---7---7---|
 A|-7---7---7---7---7---7---7---7---|---------------------------------|
 E|---------------------------------|---------------------------------|





 G|---------------------------------|---------------------------------|
 D|---------------------------------|-5---5---5---5---5---5---5---5---|
 A|-5---5---5---5---5---5---5---5---|---------------------------------|
 E|---------------------------------|---------------------------------|




   03:10

 G|---------------------------------|---------------------------------|
 D|---------------------------------|---------------------------------|
 A|-3---3---3-----------------------|-2---2---2-----------------------|
 E|---------------------------------|---------------------------------|





 G|---------------------------------|---------------------------------|
 D|---------------------------------|---------------------------------|
 A|-0---0---0-----------------------|---------------------------------|
 E|---------------------------------|-3---3---3-----------------------|





 G|---------------------------------|---------------------------------|
 D|-3---3---3-----------------------|---------------------------------|
 A|---------------------------------|-3---3---3-----------------------|
 E|---------------------------------|---------------------------------|





 G|---------------------------------|---------------------------------|
 D|---------------------------------|---------------------------------|
 A|---------------------------------|---------------------------------|
 E|-3---3---3---3-------------------|-3---3---3-----------------------|





   INTERLUDE
   03:24

 G|---------------------------------|---------------------------------|
 D|-------------------------5-/-7---|---------------------------------|
 A|-0---0-------7-------7-----------|-0-------7-----------------------|
 E|---------------------------------|---------------------------------|





 G|---------------------------------|---------------------------------|
 D|-------------------------5-/-7---|-----------------5-/-7-----------|
 A|-0---0-------7-------7-----------|-0-------7-----------------------|
 E|---------------------------------|---------------------------------|





 G|---------------------------------|---------------------------------|
 D|---------------------------------|---------------------------------|
 A|-5-------------------------------|-5-------------------------------|
 E|---------------------------------|---------------------------------|





 G|---------------------------------|---------------------------------|
 D|---------------------------------|-5---5---5---5---5---5---5---5---|
 A|-5-------5-------5-------5-------|---------------------------------|
 E|---------------------------------|---------------------------------|





   BRIDGE
   03:38

 G|---------------------------------|---------------------------------|
 D|-3---3---3---3---3---3---3---3---|-5---5---5---5---5---5---5---5---|
 A|---------------------------------|---------------------------------|
 E|---------------------------------|---------------------------------|





 G|---------------------------------|---------------------------------|
 D|---------------------------------|-7---7---7---7---7---7---7---7---|
 A|-7---7---7---7---7---7---7---7---|---------------------------------|
 E|---------------------------------|---------------------------------|





 G|---------------------------------|---------------------------------|
 D|-3---3---3---3---3---3---3---3---|---------------------------------|
 A|---------------------------------|-5---5---5---5---3---3---3---3---|
 E|---------------------------------|---------------------------------|





 G|---------------------------------|---------------------------------|
 D|---------------------------------|---------------------------------|
 A|---------------------------------|---------------------------------|
 E|-3---3---3---3---1---1---1---1---|-0---0---0---0---0---0---0---0---|





   VERSE
   03:52

 G|---------------------------------|---------------------------------|
 D|-7---7---7---7---7---7---7---7---|-3---3---3---3---3---3---3---3---|
 A|---------------------------------|---------------------------------|
 E|---------------------------------|---------------------------------|





 G|---------------------------------|---------------------------------|
 D|-5---5---5---5---3---3---3---3---|-2---2---2---2---2---2---2---2---|
 A|---------------------------------|---------------------------------|
 E|---------------------------------|---------------------------------|





 G|---------------------------------|---------------------------------|
 D|-7---7---7---7---7---7---7---7---|---------------------------------|
 A|---------------------------------|-5---5---5---5---5---5---5---5---|
 E|---------------------------------|---------------------------------|





 G|---------------------------------|---------------------------------|
 D|-5---5---5---5---5---5---5---5---|-5---5---5---5---5---5---5---5---|
 A|---------------------------------|---------------------------------|
 E|---------------------------------|---------------------------------|





 G|---------------------------------|---------------------------------|
 D|-7---7---7---7---7---7---7---7---|-3-------3---3---3---3---3---3---|
 A|---------------------------------|---------------------------------|
 E|---------------------------------|---------------------------------|





 G|---------------------------------|---------------------------------|
 D|-5---5---5---5---3---3---3---3---|-2---2---2---2---2---2---2---2---|
 A|---------------------------------|---------------------------------|
 E|---------------------------------|---------------------------------|





 G|---------------------------------|---------------------------------|
 D|-3-------3---3---3---3---3---3---|-5---5---5---5---5---5---5---5---|
 A|---------------------------------|---------------------------------|
 E|---------------------------------|---------------------------------|





   OUTRO
   04:17

 G|---------------------------------|---------------------------------|
 D|-7---7---7---7---7---7---7---7---|-3---3---3---3---3---3---3---3---|
 A|---------------------------------|---------------------------------|
 E|---------------------------------|---------------------------------|





 G|---------------------------------|---------------------------------|
 D|-5---5---5---5---5---5---5---5---|---------------------------------|
 A|---------------------------------|-3---3---3---3---2---2---2---2---|
 E|---------------------------------|---------------------------------|





 G|---------------------------------|---------------------------------|
 D|-7---7---7---7---7---7---7---7---|-3---3---3---3---3---3---3---3---|
 A|---------------------------------|---------------------------------|
 E|---------------------------------|---------------------------------|





 G|---------------------------------|---------------------------------|
 D|-5---5---5---5---5---5---5---5---|-5---5---5---5---5---5---5---5---|
 A|---------------------------------|---------------------------------|
 E|---------------------------------|---------------------------------|





 G|---------------------------------|---------------------------------|
 D|-7-------7---7---7---7---7---7---|-3-------3---3---3---3---3---3---|
 A|---------------------------------|---------------------------------|
 E|---------------------------------|---------------------------------|





 G|---------------------------------|---------------------------------|
 D|-5-------5---5---5---5---5---5---|---------------------------------|
 A|---------------------------------|-3---3---3---3---2---2---2---2---|
 E|---------------------------------|---------------------------------|





 G|---------------------------------|---------------------------------|
 D|-7-------7---7---7---7---7---7---|-3---3---3---3---3---3---3---3---|
 A|---------------------------------|---------------------------------|
 E|---------------------------------|---------------------------------|





 G|---------------------------------|---------------------------------|
 D|-5---5---5---5---5---5---5---5---|-5---5---5---5---5---5---5---5---|
 A|---------------------------------|---------------------------------|

Find guitar tabs and chords

A B C D E F G H I J K L M N O P Q R S T U V W X Y Z #