Manchurian Beat by The Ventures

Manchurian Beat tab by The Ventures

Guitar tabs

MANCHURIAN BEAT


The Ventures



 INTRO
 00:00

  X    X    X  X  X  x     X    X  X  x  X  X
e|---------------------------------|---------------------------------|
B|---------------------------------|---------------------------------|
G|---------------------------------|---------------------------------|
D|---------------------------------|---------------------------------|
A|---------------------------------|---------------------------------|
E|---------------------------------|---------------------------------|




  X    X    X  X  X  x     X    X  X  x  X  X
e|---------------------------------|---------------------------------|
B|---------------------------------|---------------------------------|
G|---------------------------------|---------------------------------|
D|---------------------------------|---------------------------------|
A|---------------------------------|---------------------------------|
E|---------------------------------|---------------------------------|




  x x x x x x x x x x x x x x x x  X X X X X X X X X X X X X X X X
e|---------------------------------|---------------------------------|
B|---------------------------------|-----------------7---------------|
G|---------------------------------|---------------------------------|
D|---------------------------------|---------------------------------|
A|---------------------------------|---------------------------------|
E|---------------------------------|---------------------------------|





 VERSE
 00:10

  Cm
e|---------------------------------|---------------------------------|
B|-8-------------------------------|-------------------------6-------|
G|---------------------------------|-------------7-------8-----------|
D|---------------------------------|---------------------------------|
A|---------------------------------|---------------------------------|
E|---------------------------------|---------------------------------|




  G
e|---------------------------------|---------------------------------|
B|-8-------------------------------|---------------------------------|
G|---------------------------------|---------------------------------|
D|---------------------------------|---------------------------------|
A|---------------------------------|---------------------------------|
E|---------------------------------|---------------------------------|





e|-------------------------7-------|-11----------10------11--10------|
B|-7-----------8-------------------|---------------------------------|
G|---------------------------------|---------------------------------|
D|---------------------------------|---------------------------------|
A|---------------------------------|---------------------------------|
E|---------------------------------|---------------------------------|




  Cm
e|-8-------------------------------|---------------------------------|
B|---------------------------------|---------------------------------|
G|---------------------------------|---------------------------------|
D|---------------------------------|---------------------------------|
A|---------------------------------|---------------------------------|
E|---------------------------------|---------------------------------|




                   C7
e|-------------8---------8-11------|---------------------------------|
B|-8-------------------------------|-12----------13--------------9---|
G|---------------------------------|---------------------------------|
D|---------------------------------|---------------------------------|
A|---------------------------------|---------------------------------|
E|---------------------------------|---------------------------------|




  Fm
e|-10----------8-------------------|-10--8---------------------------|
B|---------------------9-----------|-------------9-------------------|
G|-------------------------10------|---------------------10----------|
D|---------------------------------|---------------------------------|
A|---------------------------------|---------------------------------|
E|---------------------------------|---------------------------------|




  Cm                G
e|-------------8-----------10------|-11----------10------11--10------|
B|-8-------------------------------|---------------------------------|
G|---------------------------------|---------------------------------|
D|---------------------------------|---------------------------------|
A|---------------------------------|---------------------------------|
E|---------------------------------|---------------------------------|




  Cm
e|-8-------------------------------|---------------------------------|
B|---------------------------------|---------------------------------|
G|---------------------------------|---------------------------------|
D|---------------------------------|---------------------------------|
A|---------------------------------|---------------------------------|
E|---------------------------------|---------------------------------|





 VERSE
 00:32

  Cm
e|---------------------------------|---------------------------------|
B|-8-------------------------------|---------------------------------|
G|---------------------------------|---------------------------------|
D|---------------------------------|-------------------------3-------|
A|---------------------------------|-------------5-------6-----------|
E|---------------------------------|---------------------------------|




  G
e|---------------------------------|---------------------------------|
B|---------------------------------|---------------------------------|
G|---------------------------------|---------------------------------|
D|-5-------------------------------|---------------------------------|
A|---------------------------------|---------------------------------|
E|---------------------------------|---------------------------------|





e|---------------------------------|---------------------------------|
B|---------------------------------|-4-----------3-------4---3-------|
G|-------------------------4-------|---------------------------------|
D|-4-----------5-------------------|---------------------------------|
A|---------------------------------|---------------------------------|
E|---------------------------------|---------------------------------|




  Cm
e|---------------------------------|---------------------------------|
B|---------------------------------|---------------------------------|
G|-5-------------------------------|---------------------------------|
D|---------------------------------|---------------------------------|
A|---------------------------------|---------------------------------|
E|---------------------------------|---------------------------------|




                   C7
e|---------------------------------|---------------------------------|
B|-------------------------4-------|---------------------------------|
G|-------------5-------------------|-4-----------5-------------------|
D|-5-------------------------------|---------------------------------|
A|---------------------------------|---------------------------------|
E|---------------------------------|---------------------------------|




  Fm
e|---------------------------------|---------------------------------|
B|-3-------------------------------|-3-------------------------------|
G|-------------5-------------------|-------------5-------------------|
D|-------------------------6-------|---------------------------------|
A|---------------------------------|---------------------------------|
E|---------------------------------|---------------------------------|




  Cm                G
e|---------------------------------|---------------------------------|
B|-------------------------3-------|-4-----------3-------4---3-------|
G|-------------5-------------------|---------------------------------|
D|-5-------------------------------|---------------------------------|
A|---------------------------------|---------------------------------|
E|---------------------------------|---------------------------------|




  Cm
e|---------------------------------|---------------------------------|
B|---------------------------------|-------------8-------7---8---9---|
G|-5-------------------------------|---------------------------------|
D|---------------------------------|---------------------------------|
A|---------------------------------|---------------------------------|
E|---------------------------------|---------------------------------|





 BRIDGE
 00:55

  G
e|---------------------------------|---------------------------------|
B|-8-------------------------------|-------------------------6-------|
G|-------------------------7-------|-7-----------8-------------------|
D|---------------------------------|---------------------------------|
A|---------------------------------|---------------------------------|
E|---------------------------------|---------------------------------|




  Cm
e|---------------------------------|-------------6-------5---6---8---|
B|-8-------------------------------|---------------------------------|
G|---------------------------------|---------------------------------|
D|---------------------------------|---------------------------------|
A|---------------------------------|---------------------------------|
E|---------------------------------|---------------------------------|




  Bb
e|-6-------------------------------|---------------------------------|
B|-------------------------6-------|-6-----------8-----------9-------|
G|---------------------------------|---------------------------------|
D|---------------------------------|---------------------------------|
A|---------------------------------|---------------------------------|
E|---------------------------------|---------------------------------|




  D#
e|-6-------------------------------|-------------8-------7---8---9---|
B|---------------------------------|---------------------------------|
G|---------------------------------|---------------------------------|
D|---------------------------------|---------------------------------|
A|---------------------------------|---------------------------------|
E|---------------------------------|---------------------------------|




  C7
e|-8-------------------------------|---------------------------------|
B|-------------------------8-------|-7---------------8---------------|
G|---------------------------------|---------------------------------|
D|---------------------------------|---------------------------------|
A|---------------------------------|---------------------------------|
E|---------------------------------|---------------------------------|




  F
e|-6-----------4---4---------------|---------4-------3---------------|
B|---------------------------------|-------------------------6-------|
G|---------------------------------|---------------------------------|
D|---------------------------------|---------------------------------|
A|---------------------------------|---------------------------------|
E|---------------------------------|---------------------------------|




  Cm                G
e|---------------------------------|---------------------------------|
B|-4-----------6-------6---4-------|-3-----------4-------4---3-------|
G|---------------------------------|---------------------------------|
D|---------------------------------|---------------------------------|
A|---------------------------------|---------------------------------|
E|---------------------------------|---------------------------------|




  Cm
e|---------------------------------|---------------------------------|
B|---------------------------------|---------------------------------|
G|-5-------------------------------|---------------------------------|
D|---------------------------------|---------------------------------|
A|---------------------------------|---------------------------------|
E|---------------------------------|---------------------------------|





 VERSE
 01:19

  Cm
e|---------------------------------|---------------------------------|
B|-8-------------------6---4-------|---------------------8---8-------|
G|---------------------------------|-5-------------------------------|
D|---------------------------------|---------------------------------|
A|---------------------------------|---------------------------------|
E|---------------------------------|---------------------------------|




  G
e|-11------11------11--10------8---|---------------------------------|
B|---------------------------------|---------------------------------|
G|---------------------------------|---------------------------------|
D|---------------------------------|---------------------------------|
A|---------------------------------|---------------------------------|
E|---------------------------------|---------------------------------|




  Cm                C7
e|-------------8-----------10------|-11--10------8-------------------|
B|-8-------------------------------|---------------------------------|
G|---------------------------------|---------------------------------|
D|---------------------------------|---------------------------------|
A|---------------------------------|---------------------------------|
E|---------------------------------|---------------------------------|




  Fm
e|-10----------8-------------------|-10--8---------------------------|
B|-------------------------9-------|-------------9-------------------|
G|---------------------------------|---------------------------------|
D|---------------------------------|---------------------------------|
A|---------------------------------|---------------------------------|
E|---------------------------------|---------------------------------|




  Cm                G
e|---------------------------------|---------------------------------|
B|-------------4-----------6-------|-8-----------6---------------6--H|
G|-5-------------------------------|---------------------------------|
D|---------------------------------|---------------------------------|
A|---------------------------------|---------------------------------|
E|---------------------------------|---------------------------------|




                   Cm
e|---------------------------------|---------------------------------|
B|-8-------8-------6---4-----------|---------------------------------|
G|-------------------------5---3---|-5-------------------------------|
D|---------------------------------|---------------------------------|
A|---------------------------------|---------------------------------|
E|---------------------------------|---------------------------------|





 VERSE
 01:36

  Cm
e|---------------------------------|---------------------------------|
B|-8-------------------6---4-------|---------------------8---8-------|
G|---------------------------------|-5-------------------------------|
D|---------------------------------|---------------------------------|
A|---------------------------------|---------------------------------|
E|---------------------------------|---------------------------------|




  G
e|-11------11------11--10------8---|---------------------------------|
B|---------------------------------|---------------------------------|
G|---------------------------------|---------------------------------|
D|---------------------------------|---------------------------------|
A|---------------------------------|---------------------------------|
E|---------------------------------|---------------------------------|




  Cm                C7
e|-------------8-------8---10------|-11--10------8-------------------|
B|-8-------------------------------|---------------------------------|
G|---------------------------------|---------------------------------|
D|---------------------------------|---------------------------------|
A|---------------------------------|---------------------------------|
E|---------------------------------|---------------------------------|




  Fm
e|-10----------8-------------------|-10--8---------------------------|
B|-------------------------9-------|-------------9-------------------|
G|---------------------------------|---------------------------------|
D|---------------------------------|---------------------------------|
A|---------------------------------|---------------------------------|
E|---------------------------------|---------------------------------|




  Cm                G
e|---------------------------------|---------------------------------|
B|-------------4-----------6-------|-8-----------6-------------------|
G|-5-------------------------------|---------------------------------|
D|---------------------------------|---------------------------------|
A|---------------------------------|---------------------------------|
E|---------------------------------|---------------------------------|




                   Cm
e|---------------------------------|---------------------------------|
B|6/8------8-------6---4-----------|---------------------------------|
G|-------------------------5---3---|-5-------------------------------|
D|---------------------------------|---------------------------------|
A|---------------------------------|---------------------------------|
E|---------------------------------|---------------------------------|





 INTERLUDE
 01:54

  Cm                Bb
e|-8-----------8-------------------|-6-----------6-------------------|
B|-----8---------------8-----------|-----7---------------7-----------|
G|---------8---------------8-------|---------7---------------7-------|
D|---------------------------------|---------------------------------|
A|---------------------------------|---------------------------------|
E|---------------------------------|---------------------------------|




  G#7
e|-5-------------------------------|---------------------------------|
B|-4-------------------------------|---------------------------------|
G|---------------------------------|---------------------------------|
D|---------------------------------|---------------------------------|
A|---------------------------------|---------------------------------|
E|---------------------------------|---------------------------------|




  X    X      x  X  X     X    x  X  X  X  x
e|---------------------------------|---------------------------------|
B|---------------------------------|---------------------------------|
G|---------------------------------|---------------------------------|
D|---------------------------------|---------------------------------|
A|---------------------------------|---------------------------------|
E|---------------------------------|---------------------------------|




  x x x x x x x x x x x x x x x x  X X X X X X X X X X X X X X X X
e|---------------------------------|---------------------------------|
B|---------------------------------|-----------------5---------------|
G|---------------------------------|---------------------------------|
D|---------------------------------|---------------------------------|
A|---------------------------------|---------------------------------|
E|---------------------------------|---------------------------------|





 VERSE
 02:05

  Bbm
e|---------------------------------|---------------------------------|
B|-6-------------------------------|-------------------------4-------|
G|---------------------------------|-------------6-------6-----------|
D|---------------------------------|---------------------------------|
A|---------------------------------|---------------------------------|
E|---------------------------------|---------------------------------|




  F
e|---------------------------------|---------------------------------|
B|-6-------------------------------|---------------------------------|
G|---------------------------------|---------------------------------|
D|---------------------------------|---------------------------------|
A|---------------------------------|---------------------------------|
E|---------------------------------|---------------------------------|





e|-------------------------5-------|-9-----------8-------9---8-------|
B|-5-----------6-------------------|---------------------------------|
G|---------------------------------|---------------------------------|
D|---------------------------------|---------------------------------|
A|---------------------------------|---------------------------------|
E|---------------------------------|---------------------------------|




  Bbm
e|-6-------------------------------|---------------------------------|
B|---------------------------------|---------------------------------|
G|---------------------------------|---------------------------------|
D|---------------------------------|---------------------------------|
A|---------------------------------|---------------------------------|
E|---------------------------------|---------------------------------|




                   Bbm7
e|-------------6-----------9-------|---------------------------------|
B|-6-------------------------------|-10----------11------------------|
G|---------------------------------|---------------------------------|
D|---------------------------------|---------------------------------|
A|---------------------------------|---------------------------------|
E|---------------------------------|---------------------------------|




  D#m
e|-8-----------6-------------------|-8-----------6-------------------|
B|-------------------------7-------|---------------------------------|
G|---------------------------------|---------------------------------|
D|---------------------------------|---------------------------------|
A|---------------------------------|---------------------------------|
E|---------------------------------|---------------------------------|




  Bbm                F
e|-------------6-----------8-------|-9-----------8-------9---8-------|
B|-6-------------------------------|---------------------------------|
G|---------------------------------|---------------------------------|
D|---------------------------------|---------------------------------|
A|---------------------------------|---------------------------------|
E|---------------------------------|---------------------------------|




  Bbm
e|-6-------------------------------|---------------------------------|
B|---------------------------------|---------------------------------|
G|---------------------------------|---------------------------------|
D|---------------------------------|---------------------------------|
A|---------------------------------|---------------------------------|
E|---------------------------------|---------------------------------|





 OUTRO
 02:29

  Bbm
e|---------------------------------|---------------------------------|
B|-6-----------------------4-------|-6-----------------------4-------|
G|-------------6-------------------|-------------6-------------------|
D|---------------------------------|---------------------------------|
A|---------------------------------|---------------------------------|
E|---------------------------------|---------------------------------|





e|---------------------------------|---------------------------------|
B|-6-----------------------4-------|-6-----------------------4-------|
G|-------------6-------------------|-------------6-------------------|
D|---------------------------------|---------------------------------|
A|---------------------------------|---------------------------------|

Find guitar tabs and chords

A B C D E F G H I J K L M N O P Q R S T U V W X Y Z #