Manchurian Beat Live by The Ventures

Manchurian Beat Live bass tab by The Ventures

Bass tabs

THE VENTURES - MANCHURIAN BEAT
       From SUPER LIVE '80 album. Released in Japan on
               September 1980.

     ---------------------------------------------------------





   DRUMS INTRO


   X    X    x    x  X     X    X  x    x
 G|---------------------------------|---------------------------------|
 D|---------------------------------|---------------------------------|
 A|---------------------------------|---------------------------------|
 E|---------------------------------|---------------------------------|




   X    X    x  x  x  X     X    X  x  x  x
 G|---------------------------------|---------------------------------|
 D|---------------------------------|---------------------------------|
 A|---------------------------------|---------------------------------|
 E|---------------------------------|---------------------------------|




   x x x x x x x x X X X X X X X X  X X X X X X X X X X X X X X X X
 G|---------------------------------|---------------------------------|
 D|---------------------------------|---------------------------------|
 A|---------------------------------|---------------------------------|
 E|---------------------------------|---------------------------------|





   VERSE


 G|---------------------------------|---------------------------------|
 D|-----------------5-----------5---|-----------------5-----------5---|
 A|-3-----------6-----------6-------|-3-----------6-----------6-------|
 E|---------------------------------|---------------------------------|





 G|---------------------------------|---------------------------------|
 D|---------------------------------|---------------------------------|
 A|-------------2---5-------2---5---|-------------2---5-------2---5---|
 E|-3-------------------------------|-3-------------------------------|





 G|---------------------------------|---------------------------------|
 D|---------------------------------|---------------------------------|
 A|-------------2---5-------2---5---|-------------2---5-------2---5---|
 E|-3-------------------------------|-3-------------------------------|





 G|---------------------------------|---------------------------------|
 D|-----------------5-----------5---|-----------------5-----------5---|
 A|-3-----------6-----------6-------|-3-----------6-----------6-------|
 E|---------------------------------|---------------------------------|





 G|---------------------------------|---------------------------------|
 D|-----------------5-----------5---|-------------2-------5---2---5---|
 A|-3-----------6-----------6-------|-3-------------------------------|
 E|---------------------------------|---------------------------------|





 G|-----------------5-----------5---|---------------------------------|
 D|-3-----------6-----------6-------|-3-------------------------------|
 A|---------------------------------|-------------3-------1---3---1---|
 E|---------------------------------|---------------------------------|





 G|---------------------------------|---------------------------------|
 D|-----------------5-----------5---|---------------------------------|
 A|-3-----------6-----------6-------|-------------2---5-------2---5---|
 E|---------------------------------|-3-------------------------------|





 G|---------------------------------|---------------------------------|
 D|-----------------5-----------5---|-----------------5-----------5---|
 A|-3-----------6-----------6-------|-3-----------6-----------6-------|
 E|---------------------------------|---------------------------------|





   VERSE


 G|---------------------------------|---------------------------------|
 D|-----------------5-----------5---|-----------------5-----------5---|
 A|-3-----------6-----------6-------|-3-----------6-----------6-------|
 E|---------------------------------|---------------------------------|





 G|---------------------------------|---------------------------------|
 D|---------------------------------|---------------------------------|
 A|-------------2---5-------2---5---|-------------2---5-------2---5---|
 E|-3-------------------------------|-3-------------------------------|





 G|---------------------------------|---------------------------------|
 D|---------------------------------|---------------------------------|
 A|-------------2---5-------2---5---|-------------2---5-------2---5---|
 E|-3-------------------------------|-3-------------------------------|





 G|---------------------------------|---------------------------------|
 D|-----------------5-----------5---|-----------------5-----------5---|
 A|-3-----------6-----------6-------|-3-----------6-----------6-------|
 E|---------------------------------|---------------------------------|





 G|---------------------------------|---------------------------------|
 D|-----------------5-----------5---|-------------2-------5---2---5---|
 A|-3-----------6-----------6-------|-3-------------------------------|
 E|---------------------------------|---------------------------------|





 G|-----------------5-----------5---|---------------------------------|
 D|-3-----------6-----------6-------|-3-------------------------------|
 A|---------------------------------|-------------3-------1---3---1---|
 E|---------------------------------|---------------------------------|





 G|---------------------------------|---------------------------------|
 D|-----------------5-----------5---|---------------------------------|
 A|-3-----------6-----------6-------|-------------2---5-------2---5---|
 E|---------------------------------|-3-------------------------------|





 G|---------------------------------|---------------------------------|
 D|-----------------5-----------5---|---------------------------------|
 A|-3-----------6-----------6-------|-3-----------3---3---------------|
 E|---------------------------------|-------------------------1-------|





   BRIDGE


 G|---------------------------------|---------------------------------|
 D|---------------------------------|---------------------------------|
 A|---------2---2---5---5---2---5---|---------2---2---5---5---2---5---|
 E|-3---3---------------------------|-3---3---------------------------|





 G|---------------------------------|---------------------------------|
 D|-----------------5---5-------5---|---------------------------------|
 A|-3---3---6---6-----------6-------|-3---3---3---3---3-------2-------|
 E|---------------------------------|---------------------------------|





 G|-----------------------------3---|---------1-------0---0-----------|
 D|---------0---0---3---3-----------|-------------------------3---3---|
 A|-1---1---------------------------|---------------------------------|
 E|---------------------------------|---------------------------------|





 G|---------0---0---3-------0---3---|---------------------------------|
 D|-1---1---------------------------|-1-------1-------0---------------|
 A|---------------------------------|-------------------------4-------|
 E|---------------------------------|---------------------------------|





 G|---------------------------------|---------------------------------|
 D|-------------2---5-------2---5---|-------------2-------5---2---5---|
 A|-3-------------------------------|-3-------------------------------|
 E|---------------------------------|---------------------------------|





 G|-------------2---5---5---2---5---|---------------------------------|
 D|-3---3---3-----------------------|-3-------------------------------|
 A|---------------------------------|-------------3-------1---3---1---|
 E|---------------------------------|---------------------------------|





 G|---------------------------------|---------------------------------|
 D|-----------------5-----------5---|---------------------------------|
 A|-3-----------6-----------6-------|---------2---2---5---5---2---5---|
 E|---------------------------------|-3---3---------------------------|





 G|---------------------------------|---------------------------------|
 D|---------------------------------|---------------------------------|
 A|-3-------3-------3-------3-------|-----------------1-------1---2---|
 E|---------------------------------|---------3---3-------3-----------|





   VERSE


 G|---------------------------------|---------------------------------|
 D|-----------------5-----------5---|-----------------5-----------5---|
 A|-3-----------6-----------6-------|-3-----------6-----------6-------|
 E|---------------------------------|---------------------------------|





 G|---------------------------------|---------------------------------|
 D|---------------------------------|-----------------5-----------5---|
 A|-------------2---5-------2---5---|-3-----------6-----------6-------|
 E|-3-------------------------------|---------------------------------|





 G|---------------------------------|---------------------------------|
 D|-----------------5-----------5---|-------------2-------5---2---5---|
 A|-3-----------6-----------6-------|-3-------------------------------|
 E|---------------------------------|---------------------------------|





 G|-----------------5-----------5---|---------------------------------|
 D|-3-----------6-----------6-------|-3-------------------------------|
 A|---------------------------------|-------------3-------1---3---1---|
 E|---------------------------------|---------------------------------|





 G|---------------------------------|---------------------------------|
 D|-----------------5-----------5---|---------------------------------|
 A|-3-----------6-----------6-------|-------------2---5-------2---5---|
 E|---------------------------------|-3-------------------------------|





 G|---------------------------------|---------------------------------|
 D|-----------------5-----------5---|-----------------5-----------5---|
 A|-3-----------6-----------6-------|-3-----------6-----------6-------|
 E|---------------------------------|---------------------------------|





   VERSE


 G|---------------------------------|---------------------------------|
 D|-----------------5-----------5---|-----------------5-----------5---|
 A|-3-----------6-----------6-------|-3-----------6-----------6-------|
 E|---------------------------------|---------------------------------|





 G|---------------------------------|---------------------------------|
 D|---------------------------------|-----------------5-----------5---|
 A|-------------2---5-------2---5---|-3-----------6-----------6-------|
 E|-3-------------------------------|---------------------------------|





 G|---------------------------------|---------------------------------|
 D|-----------------5-----------5---|-------------2-------5---2---5---|
 A|-3-----------6-----------6-------|-3-------------------------------|
 E|---------------------------------|---------------------------------|





 G|-----------------5-----------5---|---------------------------------|
 D|-3-----------6-----------6-------|-3-------------------------------|
 A|---------------------------------|-------------3-------1---3---1---|
 E|---------------------------------|---------------------------------|





 G|---------------------------------|---------------------------------|
 D|-----------------5-----------5---|---------------------------------|
 A|-3-----------6-----------6-------|-------------2---5-------2---5---|
 E|---------------------------------|-3-------------------------------|





 G|---------------------------------|---------------------------------|
 D|-----------------5-----------5---|-----------------5-----------5---|
 A|-3-----------6-----------6-------|-3-----------6-----------6-------|
 E|---------------------------------|---------------------------------|





   INTERLUDE


 G|---------------------------------|---------------------------------|
 D|---------------------------------|---------------------------------|
 A|-3-----------3-----------3-------|-6-----------6-----------6-------|
 E|---------------------------------|---------------------------------|





 G|---------------------------------|---------------------------------|
 D|-3-----------3-----------3-------|-3---3---1---1---0---0-----------|
 A|---------------------------------|-------------------------3---3---|
 E|---------------------------------|---------------------------------|




   x    X    x  x  X  x   x  x  X  x  x  x  X
 G|---------------------------------|---------------------------------|
 D|---------------------------------|---------------------------------|
 A|-1-------------------------------|---------------------------------|
 E|---------------------------------|---------------------------------|




   x x x x x x x x X X X X X X X X  X X X X X X X X X X X X X X X X
 G|---------------------------------|---------------------------------|
 D|---------------------------------|---------------------------------|
 A|---------------------------------|---------------------------------|
 E|---------------------------------|---------------------------------|





   VERSE


 G|---------------------------------|---------------------------------|
 D|-----------------3-----------3---|-----------------3-----------3---|
 A|-1-----------4-----------4-------|-1-----------4-----------4-------|
 E|---------------------------------|---------------------------------|





 G|-------------2---5-------2---5---|-------------2---5-------2---5---|
 D|-3-------------------------------|-3-------------------------------|
 A|---------------------------------|---------------------------------|
 E|---------------------------------|---------------------------------|





 G|-------------2---5-------2---5---|---------------------------------|
 D|-3-------------------------------|-3-------1-------0---------------|
 A|---------------------------------|-------------------------3-------|
 E|---------------------------------|---------------------------------|





 G|---------------------------------|-3-------------------------------|
 D|-----------------3-----------3---|-----3-------3-------3-------3---|
 A|-1-----------4-----------4-------|---------1---------------1-------|
 E|---------------------------------|---------------------------------|





 G|---------------------------------|---------------------------------|
 D|-----------------3-----------3---|-------------0-------3---0---3---|
 A|-1-----------4-----------4-------|-1-------------------------------|
 E|---------------------------------|---------------------------------|





 G|-----------------3-----------3---|---------------------------------|
 D|-1-----------4-----------4-------|-1-------------------------------|
 A|---------------------------------|-------------1-----------1-------|
 E|---------------------------------|---------------------4-------4---|





 G|---------------------------------|-------------2---5-------2---5---|
 D|-----------------3---------------|-3-------------------------------|
 A|-1-----------4-----------4-------|---------------------------------|
 E|---------------------------------|---------------------------------|





 G|---------------------------------|---------------------------------|
 D|-----------------3-----------3---|-----------------3-----------3---|
 A|-1-----------4-----------4-------|-1-----------4-----------4-------|
 E|---------------------------------|---------------------------------|





   OUTRO


 G|-3-----------------------1-------|-3-----------------------1-------|
 D|-------------3-------------------|-------------3-------------------|
 A|---------------------------------|---------------------------------|
 E|---------------------------------|---------------------------------|





 G|-3-----------------------1-------|-3-----------------------1-------|
 D|-------------3-------------------|-------------3-------------------|
 A|---------------------------------|---------------------------------|
 E|---------------------------------|---------------------------------|





 G|-3-----------------------1-------|-3-----------------------1-------|
 D|-------------3-------------------|-------------3-------------------|
 A|---------------------------------|---------------------------------|
 E|---------------------------------|---------------------------------|





 G|-3-------------------------------|---------------------------------|
 D|---------------------------------|---------------------------------|
 A|---------------------------------|---------------------------------|

Find guitar tabs and chords

A B C D E F G H I J K L M N O P Q R S T U V W X Y Z #