Manchurian Beat by The Ventures

Manchurian Beat bass tab by The Ventures

Bass tabs

ventures/manchurian_beat.btab

Basstab by Jan Bjorklund, Finland;
jani_bjorklund@yahoo.se
You are welcome to request for basstabs!
Bienvenidos a pedirme transcripciones para el bajo!
Fingering and positions as suggested by TablEdit.

TablEdited by Jan Bjorklund
Tuning : E A D G 	Time Signature: 4/4


|--------------------------------|--------------------------------|
|-----------------------4 bars of intro here----------------------|
|--------------------------------|--------------------------------|
|--------------------------------|--------------------------------|


|--------------------------------|--------------------------------|
|--------------------------------|--------------------------------|
|3-----------3-----------1---2---|3-----------3-----------1---3---|
|----------------3---------------|----------------3---------------|


|--------------------------------|--------------------------------|
|----------------0-----------0---|----------------0-----------0---|
|------------2-----------2-------|------------2-----------2-------|
|3-------------------------------|3-------------------------------|


|--------------------------------|--------------------------------|
|----------------0-----------0---|----------------0-----------0---|
|------------2-----------2-------|------------2-----------2-------|
|3-------------------------------|3-------------------------------|


|--------------------------------|--------------------------------|
|--------------------------------|--------------------------------|
|3-----------3-----------1---2---|3-----------3-----------1---2---|
|----------------3---------------|----------------3---------------|


|--------------------------------|--------------------------------|
|--------------------------------|------------------------1---2---|
|3-----------3-----------1---2---|3-----------3-------------------|
|----------------3---------------|----------------3---------------|


|--------------------------------|--------------------------------|
|3-----------3-----------1---2---|3-----------3-----------1---3---|
|----------------3---------------|----------------3---------------|
|--------------------------------|--------------------------------|


|--------------------------------|--------------------------------|
|--------------------------------|----------------0-----------0---|
|3-----------3-----------1---3---|------------2-----------2-------|
|----------------3---------------|3-------------------------------|


|--------------------------------|--------------------------------|
|--------------------------------|--------------------------------|
|3-------------------------------|----------------1---1---2---2---|
|--------------------------------|--------3---3-------------------|


|--------------------------------|--------------------------------|
|--------------------------------|--------------------------------|
|3-----------3-----------1---2---|3-----------3-----------1---3---|
|----------------3---------------|----------------3---------------|


|--------------------------------|--------------------------------|
|----------------0-----------0---|----------------0-----------0---|
|------------2-----------2-------|------------2-----------2-------|
|3-------------------------------|3-------------------------------|


|--------------------------------|--------------------------------|
|----------------0-----------0---|----------------0-----------0---|
|------------2-----------2-------|------------2-----------2-------|
|3-------------------------------|3-------------------------------|


|--------------------------------|--------------------------------|
|--------------------------------|--------------------------------|
|3-----------3-----------1---2---|3-----------3-----------1---2---|
|----------------3---------------|----------------3---------------|


|--------------------------------|--------------------------------|
|--------------------------------|------------------------1---2---|
|3-----------3-----------1---2---|3-----------3-------------------|
|----------------3---------------|----------------3---------------|


|--------------------------------|--------------------------------|
|3-----------3-----------1---2---|3-----------3-----------1---3---|
|----------------3---------------|----------------3---------------|
|--------------------------------|--------------------------------|


|--------------------------------|--------------------------------|
|--------------------------------|----------------0-----------0---|
|3-----------3-----------1---3---|------------2-----------2-------|
|----------------3---------------|3-------------------------------|


|--------------------------------|--------------------------------|
|--------------------------------|--------------------------------|
|3-----------3-----------1---2---|3-----------3-----------1---3---|
|----------------3---------------|----------------3---------------|


|--------------------------------|--------------------------------|
|----------------0---0-------0---|----------------0---0-------0---|
|--------2---2-----------2-------|--------2---2-----------2-------|
|3---3---------------------------|3---3---------------------------|


|----------------0---0-------0---|----------------0---0-------0---|
|--------1---1-----------1-------|--------1---1-----------1-------|
|3---3---------------------------|3---3---------------------------|
|--------------------------------|--------------------------------|


|--------------------------------|--------------------------------|
|--------0---0---3---3---0---3---|--------0---0---3---3---0---3---|
|1---1---------------------------|1---1---------------------------|
|--------------------------------|--------------------------------|


|--------0---0---3---3---0---3---|--------------------------------|
|1---1---------------------------|1---1---------------------------|
|--------------------------------|--------4---4---3---3---2---2---|
|--------------------------------|--------------------------------|

 |    |    |    |    |    |    |    |
|----------------0---0-------0---|----------------0---0-------0---|
|--------2---2-----------2-------|--------2---2-----------2-------|
|3---3---------------------------|3---3---------------------------|
|--------------------------------|--------------------------------|

 |    |    |    |    |    |    |    |
|----------------5---5-------5---|----------------5---5-------5---|
|3---3---6---6-----------6-------|3---3---6---6-----------6-------|
|--------------------------------|--------------------------------|
|--------------------------------|--------------------------------|


|----------------0---0-------0---|--------------------------------|
|--------1---1-----------1-------|----------------0---0-------0---|
|3---3---------------------------|--------2---2-----------2-------|
|--------------------------------|3---3---------------------------|


|--------------------------------|--------------------------------|
|--------------------------------|--------------------------------|
|3-------------------------------|----------------1---1---2---2---|
|--------------------------------|--------3---3-------------------|


|--------------------------------|--------------------------------|
|--------------------------------|--------------------------------|
|3-----------3-----------1---2---|3-----------3-----------1---2---|
|----------------3---------------|----------------3---------------|


|--------------------------------|--------------------------------|
|----------------0-----------0---|--------------------------------|
|------------2-----------2-------|3-----------3-----------1---2---|
|3-------------------------------|----------------3---------------|


|--------------------------------|--------------------------------|
|--------------------------------|------------------------1---2---|
|3-----------3-----------1---2---|3-----------3-------------------|
|----------------3---------------|----------------3---------------|


|--------------------------------|--------------------------------|
|3-----------3-----------1---2---|3-----------3-----------1---3---|
|----------------3---------------|----------------3---------------|
|--------------------------------|--------------------------------|


|--------------------------------|--------------------------------|
|--------------------------------|----------------0-----------0---|
|3-----------3-----------1---3---|------------2-----------2-------|
|----------------3---------------|3-------------------------------|


|--------------------------------|--------------------------------|
|----------------0-----------0---|--------------------------------|
|------------2-----------2-------|3-----------3-----------1---2---|
|3-------------------------------|----------------3---------------|


|--------------------------------|--------------------------------|
|--------------------------------|--------------------------------|
|3-----------3-----------1---2---|3-----------3-----------1---2---|
|----------------3---------------|----------------3---------------|


|--------------------------------|--------------------------------|
|----------------0-----------0---|--------------------------------|
|------------2-----------2-------|3-----------3-----------1---2---|
|3-------------------------------|----------------3---------------|


|--------------------------------|--------------------------------|
|--------------------------------|------------------------1---2---|
|3-----------3-----------1---2---|3-----------3-------------------|
|----------------3---------------|----------------3---------------|


|--------------------------------|--------------------------------|
|3-----------3-----------1---2---|3-----------3-----------1---3---|
|----------------3---------------|----------------3---------------|
|--------------------------------|--------------------------------|


|--------------------------------|--------------------------------|
|--------------------------------|----------------0-----------0---|
|3-----------3-----------1---3---|------------2-----------2-------|
|----------------3---------------|3-------------------------------|


|--------------------------------|--------------------------------|
|----------------0-----------0---|--------------------------------|
|------------2-----------2-------|3-----------3-----------1---2---|
|3-------------------------------|----------------3---------------|


|--------------------------------|--------------------------------|
|--------------------------------|--------------------------------|
|3-----------3-------------------|1-----------1-------------------|
|--------------------------------|--------------------------------|


|--------------------------------|--------------------------------|
|--------------------------------|--------------------------------|
|--------------------------------|----------------1---1---2---2---|
|4-----------4-------------------|3-------3---3-------------------|


|--------------------------------|--------------------------------|
|--------------------------------|--------------------------------|
|3-------------------------------|--------------------------------|
|--------------------------------|--------------------------------|


|--------------------------------|--------------------------------|
|--------------------------------|--------------------------------|
|--------------------------------|--------------------------------|
|--------------------------------|--------------------------------|


|--------------------------------|--------------------------------|
|--------------------------------|--------------------------------|
|0-----------0-------------------|0-----------0-------------------|
|----------------0-------3---4---|----------------0-------3---4---|


|--------------------------------|--------------------------------|
|--------------------------------|--------------------------------|
|----------------2-----------2---|----------------2-----------2---|
|0-----------4-----------4-------|0-----------4-----------4-------|


|--------------------------------|--------------------------------|
|--------------------------------|--------------------------------|
|----------------2-----------2---|----------------2-----------2---|
|0-----------4-----------4-------|0-----------4-----------4-------|


|--------------------------------|--------------------------------|
|--------------------------------|--------------------------------|
|0-----------0-------------------|0-----------0-------------------|
|----------------0-------3---4---|----------------0-------3---4---|


|--------------------------------|--------------------------------|
|--------------------------------|--------------------------------|
|0-----------0-------------------|0-----------0-----------3---4---|
|----------------0-------3---4---|----------------0---------------|

 |
|--------------------------------|--------------------------------|
|0-----------0-------------------|0-----------0---------------0---|
|----------------0-------3---4---|----------------0-------3-------|
|--------------------------------|--------------------------------|


|--------------------------------|--------------------------------|
|--------------------------------|--------------------------------|
|0-----------0---------------0---|----------------2-----------2---|
|----------------0-------3-------|0-----------4-----------4-------|


|--------------------------------|--------------------------------|
|--------------------------------|--------------------------------|
|----------------2-----------2---|0-----------0-------------------|
|0-----------4-----------4-------|----------------0-------3---4---|


|--------------------------------|--------------------------------|
|--------------------------------|--------------------------------|
|0-----------0-------------------|--------------------------------|
|--------------------------------|3-----------3-------------------|


|--------------------------------|--------------------------------|
|--------------------------------|--------------------------------|
|--------------------------------|--------------------------------|
|1-----------1-------------------|0-------0---0---3---3---4---4---|


|--------------------------------|--------------------------------|
|--------------------------------|--------------------------------|
|0-----------------------0-------|--------------------------------|
|--------------------------------|--------------------------------|




m/

Other versions of Manchurian Beat

Alternative guitar chords and tabs for Manchurian Beat by The Ventures

Find guitar tabs and chords

A B C D E F G H I J K L M N O P Q R S T U V W X Y Z #