Lonely Heart by The Ventures

Lonely Heart bass tab by The Ventures

Bass tabs

Ventures_Lonely Heart

Basstab by Jan Bjorklund, Finland

You are welcome to request for basstabs!
Fingering and positions as suggested by TablEdit,
please use common sense!

TablEdited by Jan Bjorklund
Tuning : E A D G 	Time Signature: 4/4

 |    |    |    |     |    |    |
   |
|----------------------------------|----------------------------------|
|----------------------------------|----------------------------------|
|-3---------------3----------------|-3---------------3----------------|
|----------------------------------|----------------------------------|

 |    |    |    |     |    |    |
   |
|----------------------------------|----------------------------------|
|----------------------------------|----------------------------------|
|-2---------------2----------------|-2-----------------------2--------|
|----------------------------------|----------------------------------|

 |    |    |    |     |    |    |
   |
|----------------------------------|----------------------------------|
|----------------------------------|----------------------------------|
|-0-------0---------------0--------|-0-------0---------------0--------|
|----------------------------------|----------------------------------|

 |    |    |    |     |    |    |
   |
|----------------------------------|----------------------------------|
|----------------------------------|----------------------------------|
|----------------------------------|----------------------------------|
|-3-------3---------------3--------|-3-------3---------------3--------|

 |    |    |    |     |    |    |
   |
|----------------------------------|----------------------------------|
|----------------------------------|----------------------------------|
|-3-------3---------------3--------|-3-------3---------------3--------|
|----------------------------------|----------------------------------|

 |    |    |    |     |    |    |
   |
|----------------------------------|----------------------------------|
|----------------------------------|----------------------------------|
|-2-------2---------------2--------|-2-------2---------------2--------|
|----------------------------------|----------------------------------|

 |    |    |    |     |    |    |
   |
|----------------------------------|----------------------------------|
|----------------------------------|----------------------------------|
|-0-------0---------------0--------|-0-------0---------------0--------|
|----------------------------------|----------------------------------|

 |    |    |    |     |    |    |
   |
|----------------------------------|----------------------------------|
|----------------------------------|----------------------------------|
|----------------------------------|----------------------------------|
|-3-------3---------------3--------|-3-------3---------------3--------|

 |    |    |    |     |    |    |
   |
|----------------------------------|-2---------------2----------------|
|----------------------------------|----------------------------------|
|-3---------------3----------------|----------------------------------|
|----------------------------------|----------------------------------|

 |    |    |    |     |    |    |
   |
|----------------------------------|-0---------------0----------------|
|-3---------------3----------------|----------------------------------|
|----------------------------------|----------------------------------|
|----------------------------------|----------------------------------|

 |    |    |    |     |    |    |
   |
|----------------------------------|-2---------------2----------------|
|----------------------------------|----------------------------------|
|-3---------------3----------------|----------------------------------|
|----------------------------------|----------------------------------|

 |    |    |    |     |    |    |
   |
|----------------------------------|-0---------------0----------------|
|-3---------------3----------------|----------------------------------|
|----------------------------------|----------------------------------|
|----------------------------------|----------------------------------|

 |    |    |    |     |    |    |
   |
|----------------------------------|-----------------2----------------|
|----------------------------------|----------------------------------|
|-3---------------3----------------|-3--------------------------------|
|----------------------------------|----------------------------------|

 |    |    |    |     |    |    |
   |
|----------------------------------|-0---------------0----------------|
|-3---------------3----------------|----------------------------------|
|----------------------------------|----------------------------------|
|----------------------------------|----------------------------------|

 |    |    |    |     |    |    |
   |
|-5---------------5----------------|-2---------------2----------------|
|----------------------------------|----------------------------------|
|----------------------------------|----------------------------------|
|----------------------------------|----------------------------------|

 |    |    |    |     |    |    |
   |
|----------------------------------|-0---------------0----------------|
|-3---------------3----------------|----------------------------------|
|----------------------------------|----------------------------------|
|----------------------------------|----------------------------------|

 |    |    |    |     |    |    |
   |
|----------------------------------|-----------------0----------------|
|----------------------------------|-2--------------------------------|
|-3---------------3----------------|----------------------------------|
|----------------------------------|----------------------------------|

 |    |    |    |     |    |    |
   |
|----------------------------------|-0---------------0----------------|
|-3---------------3----------------|----------------------------------|
|----------------------------------|----------------------------------|
|----------------------------------|----------------------------------|

 |    |    |    |     |    |    |
   |
|----------------------------------|-----------------0----------------|
|----------------------------------|-2--------------------------------|
|-3---------------3----------------|----------------------------------|
|----------------------------------|----------------------------------|

 |    |    |    |     |    |    |
   |
|----------------------------------|-2---------------5----------------|
|-3---------------3----------------|----------------------------------|
|----------------------------------|----------------------------------|
|----------------------------------|----------------------------------|

 |    |    |    |     |    |    |
   |
|-7---------------7----------------|-2---------------1----------------|
|----------------------------------|----------------------------------|
|----------------------------------|----------------------------------|
|----------------------------------|----------------------------------|

 |    |    |    |     |    |    |
   |
|---------0-------0-------0--------|-0-------0-------0-------0--------|
|----------------------------------|----------------------------------|
|----------------------------------|----------------------------------|
|----------------------------------|----------------------------------|

 |    |    |    |     |    |    |
   |
|----------------------------------|-0---------------0----------------|
|----------------------------------|----------------------------------|
|-3---------------3----------------|----------------------------------|
|----------------------------------|----------------------------------|

 |    |    |    |     |    |    |
   |
|----------------------------------|-0---------------0----------------|
|-3---------------3----------------|----------------------------------|
|----------------------------------|----------------------------------|
|----------------------------------|----------------------------------|

 |    |    |    |     |    |    |
   |
|----------------------------------|-0---------------0----------------|
|----------------------------------|----------------------------------|
|-3---------------3----------------|----------------------------------|
|----------------------------------|----------------------------------|

 |    |    |    |     |    |    |
   |
|----------------------------------|----------------------------------|
|-2---------------2----------------|-2---------------2----------------|
|----------------------------------|----------------------------------|
|----------------------------------|----------------------------------|

 |    |    |    |     |    |    |
   |
|-2---------------2----------------|----------------------------------|
|----------------------------------|----------------------------------|
|----------------------------------|-3---------------3----------------|
|----------------------------------|----------------------------------|

 |    |    |    |     |    |    |
   |
|----------------------------------|-0---------------0----------------|
|-3---------------3----------------|----------------------------------|
|----------------------------------|----------------------------------|
|----------------------------------|----------------------------------|

 |    |    |    |     |    |    |
   |
|----------------------------------|----------------------------------|
|----------------------------------|-3---------------3----------------|
|-3---------------3----------------|----------------------------------|
|----------------------------------|----------------------------------|

 |    |    |    |     |    |    |
   |
|----------------------------------|-0---------------0----------------|
|----------------------------------|----------------------------------|
|-3---------------3----------------|----------------------------------|
|----------------------------------|----------------------------------|

 |    |    |    |     |    |    |
   |
|----------------------------------|----------------------------------|
|----------------------------------|----------------------------------|
|-3-------3---------------3--------|-3-------3---------------3--------|
|----------------------------------|----------------------------------|

 |    |    |    |     |    |    |
   |
|----------------------------------|----------------------------------|
|----------------------------------|----------------------------------|
|-2-------2---------------2--------|-2-------2---------------2--------|
|----------------------------------|----------------------------------|

 |    |    |    |     |    |    |
   |
|----------------------------------|----------------------------------|
|----------------------------------|----------------------------------|
|-0-------0---------------0--------|-0-------0---------------0--------|
|----------------------------------|----------------------------------|

 |    |    |    |     |    |    |
   |
|----------------------------------|----------------------------------|
|----------------------------------|----------------------------------|
|----------------------------------|----------------------------------|
|-3-------3---------------3--------|-3-------3---------------3--------|

 |    |    |    |     |    |    |
   |
|----------------------------------|-2---------------2----------------|
|----------------------------------|----------------------------------|
|-3---------------3----------------|----------------------------------|
|----------------------------------|----------------------------------|

 |    |    |    |     |    |    |
   |
|----------------------------------|-0---------------0----------------|
|-3---------------3----------------|----------------------------------|
|----------------------------------|----------------------------------|
|----------------------------------|----------------------------------|

 |    |    |    |     |    |    |
   |
|----------------------------------|-2---------------2----------------|
|----------------------------------|----------------------------------|
|-3---------------3----------------|----------------------------------|
|----------------------------------|----------------------------------|

 |    |    |    |     |    |    |
   |
|----------------------------------|-0---------------0----------------|
|-3---------------3----------------|----------------------------------|
|----------------------------------|----------------------------------|
|----------------------------------|----------------------------------|

 |    |    |    |     |    |    |
   |
|----------------------------------|-----------------2----------------|
|----------------------------------|----------------------------------|
|-3---------------3----------------|-3--------------------------------|
|----------------------------------|----------------------------------|

 |    |    |    |     |    |    |
   |
|----------------------------------|-0---------------0----------------|
|-3---------------3----------------|----------------------------------|
|----------------------------------|----------------------------------|
|----------------------------------|----------------------------------|

 |    |    |    |     |    |    |
   |
|-5---------------5----------------|-2---------------2----------------|
|----------------------------------|----------------------------------|
|----------------------------------|----------------------------------|
|----------------------------------|----------------------------------|

 |    |    |    |     |    |    |
   |
|----------------------------------|-0---------------0----------------|
|-3---------------3----------------|----------------------------------|
|----------------------------------|----------------------------------|
|----------------------------------|----------------------------------|

 |    |    |    |     |    |    |
   |
|----------------------------------|-----------------0----------------|
|----------------------------------|-2--------------------------------|
|-3---------------3----------------|----------------------------------|
|----------------------------------|----------------------------------|

 |    |    |    |     |    |    |
   |
|----------------------------------|-0---------------0----------------|
|-3---------------3----------------|----------------------------------|
|----------------------------------|----------------------------------|
|----------------------------------|----------------------------------|

 |    |    |    |     |    |    |
   |
|----------------------------------|-----------------0----------------|
|----------------------------------|-2--------------------------------|
|-3---------------3----------------|----------------------------------|
|----------------------------------|----------------------------------|

 |    |    |    |     |    |    |
   |
|----------------------------------|-2---------------5----------------|
|-3---------------3----------------|----------------------------------|
|----------------------------------|----------------------------------|
|----------------------------------|----------------------------------|

 |    |    |    |     |    |    |
   |
|-7---------------7----------------|-2---------------1----------------|
|----------------------------------|----------------------------------|
|----------------------------------|----------------------------------|
|----------------------------------|----------------------------------|

 |    |    |    |     |    |    |
   |
|---------0-------0-------0--------|-0-------0-------0-------0--------|
|----------------------------------|----------------------------------|
|----------------------------------|----------------------------------|
|----------------------------------|----------------------------------|

 |    |    |    |     |    |    |
   |
|----------------------------------|-0---------------0----------------|
|----------------------------------|----------------------------------|
|-3---------------3----------------|----------------------------------|
|----------------------------------|----------------------------------|

 |    |    |    |     |    |    |
   |
|----------------------------------|-0---------------0----------------|
|-3---------------3----------------|----------------------------------|
|----------------------------------|----------------------------------|
|----------------------------------|----------------------------------|

 |    |    |    |     |    |    |
   |
|----------------------------------|-0---------------0----------------|
|----------------------------------|----------------------------------|
|-3---------------3----------------|----------------------------------|
|----------------------------------|----------------------------------|

 |    |    |    |     |    |    |
   |
|----------------------------------|----------------------------------|
|-2---------------2----------------|-2---------------2----------------|
|----------------------------------|----------------------------------|
|----------------------------------|----------------------------------|

 |    |    |    |     |    |    |
   |
|-2---------------2----------------|----------------------------------|
|----------------------------------|----------------------------------|
|----------------------------------|-3---------------3----------------|
|----------------------------------|----------------------------------|

 |    |    |    |     |    |    |
   |
|----------------------------------|-0---------------0----------------|
|-3---------------3----------------|----------------------------------|
|----------------------------------|----------------------------------|
|----------------------------------|----------------------------------|

 |    |    |    |     |    |    |
   |
|----------------------------------|----------------------------------|
|----------------------------------|-3---------------3----------------|
|-3---------------3----------------|----------------------------------|
|----------------------------------|----------------------------------|

 |    |    |    |     |    |    |
   |
|----------------------------------|-0---------------0----------------|
|----------------------------------|----------------------------------|
|-3---------------3----------------|----------------------------------|
|----------------------------------|----------------------------------|

 |    |    |    |     |    |    |
   |
|----------------------------------|----------------------------------|
|----------------------------------|----------------------------------|
|-3---------------3----------------|-3---------------3----------------|
|----------------------------------|----------------------------------|

 |    |    |    |     |    |    |
   |
|----------------------------------|----------------------------------|
|----------------------------------|----------------------------------|
|-2---------------2----------------|-2-----------------------2--------|
|----------------------------------|----------------------------------|

 |    |    |    |     |    |    |
   |
|----------------------------------|----------------------------------|
|----------------------------------|----------------------------------|
|-0-------0---------------0--------|-0-------0---------------0--------|
|----------------------------------|----------------------------------|

 |    |    |    |     |    |    |
   |
|----------------------------------|----------------------------------|
|----------------------------------|----------------------------------|
|----------------------------------|----------------------------------|
|-3-------3---------------3--------|-3-------3---------------3--------|

 |    |    |    |     |    |    |
   |
|----------------------------------|----------------------------------|
|----------------------------------|----------------------------------|
|-3---------------3----------------|-3---------------3----------------|
|----------------------------------|----------------------------------|

 |    |    |    |     |    |    |
   |
|----------------------------------|----------------------------------|
|----------------------------------|----------------------------------|
|-2---------------2----------------|-2-----------------------2--------|
|----------------------------------|----------------------------------|

 |    |    |    |     |    |    |
   |
|----------------------------------|----------------------------------|
|----------------------------------|----------------------------------|
|-0-------0---------------0--------|-0-------0---------------0--------|
|----------------------------------|----------------------------------|

 |    |    |    |     |    |    |
   |
|----------------------------------|----------------------------------|
|----------------------------------|----------------------------------|
|----------------------------------|----------------------------------|
|-3-------3---------------3--------|-3-------3---------------3--------|

 |    |    |    |     |    |    |
   |
|----------------------------------|----------------------------------|
|----------------------------------|----------------------------------|
|-3---------------3----------------|-3---------------3----------------|
|----------------------------------|----------------------------------|

 |    |    |    |     |    |    |
   |
|----------------------------------|----------------------------------|
|----------------------------------|----------------------------------|
|-2---------------2----------------|-2-----------------------2--------|
|----------------------------------|----------------------------------|

 |    |    |    |     |    |    |
   |
|----------------------------------|----------------------------------|
|----------------------------------|----------------------------------|
|-0-------0---------------0--------|-0-------0---------------0--------|
|----------------------------------|----------------------------------|

 |    |    |    |     |    |    |
   |
|----------------------------------|----------------------------------|
|----------------------------------|----------------------------------|
|----------------------------------|----------------------------------|
|-3-------3---------------3--------|-3-------3---------------3--------|




m/

Find guitar tabs and chords

A B C D E F G H I J K L M N O P Q R S T U V W X Y Z #