Lets Go by The Ventures

Lets Go bass tab by The Ventures

Bass tabs

Ventures_Let's Go

Basstab by Jan Bjorklund, Finland

You are welcome to request for basstabs!
Fingering and positions as suggested by TablEdit,
please use common sense!

TablEdited by Jan Bjorklund
Tuning : E A D G 	Time Signature: 4/4

 |    |    |    |     |    |    |
   |
|----------------------------------|----------------------------------|
|----------------------------------|-0--------------------------------|
|---------------------0---2---4----|-----------------0----------------|
|----------------------------------|----------------------------------|

 |    |    |    |     |    |    |
   |
|----------------------------------|-0--------------------------------|
|-0-----------------------2---4----|-----------------0----------------|
|-----------------0----------------|----------------------------------|
|----------------------------------|----------------------------------|

 |    |    |    |     |    |    |
   |
|-0--------------------------------|----------------------------------|
|-----------------0----------------|-0--------------------------------|
|-------------------------2---4----|-----------------0----------------|
|----------------------------------|----------------------------------|

 |    |    |    |     |    |    |
   |
|-------------------------0---1----|-2--------------------------------|
|-0--------------------------------|-----------------2-------3---4----|
|-----------------0----------------|----------------------------------|
|----------------------------------|----------------------------------|

 |    |    |    |     |    |    |
   |
|-0--------------------------------|----------------------------------|
|-----------------0----------------|-0--------------------------------|
|-------------------------2---4----|-----------------0----------------|
|----------------------------------|----------------------------------|

 |    |    |    |     |    |    |
   |
|----------------------------------|----------------------------------|
|-0--------------------------------|-0--------------------------------|
|-----------------0-------2---4----|-----------------0----------------|
|----------------------------------|----------------------------------|

 |    |    |    |     |    |    |
   |
|----------------------------------|----------------------------------|
|-0--------------------------------|-2--------------------------------|
|-----------------0-------2---4----|-----------------2----------------|
|----------------------------------|----------------------------------|

 |    |    |    |     |    |    |
   |
|----------------------------------|----------------------------------|
|-2---------------------------1----|-4--------------------------------|
|-----------------2-------4--------|-----------------4----------------|
|----------------------------------|----------------------------------|

 |    |    |    |     |    |    |
   |
|----------------------------------|----------------------------------|
|-4-----------------------1---3----|-2--------------------------------|
|-----------------4----------------|----------------------------------|
|----------------------------------|----------------------------------|

 |    |    |    |     |    |    |
   |
|----------------------------------|----------------------------------|
|----------------------------------|----------------------------------|
|----------------------------------|----------------------------------|
|----------------------------------|----------------------------------|

 |    |    |    |     |    |    |
   |
|----------------------------------|----------------------------------|
|----------------------------------|-0--------------------------------|
|---------------------0---2---4----|-----------------0----------------|
|----------------------------------|----------------------------------|

 |    |    |    |     |    |    |
   |
|----------------------------------|----------------------------------|
|-0--------------------------------|-0--------------------------------|
|-----------------0-------2---4----|-----------------0----------------|
|----------------------------------|----------------------------------|

 |    |    |    |     |    |    |
   |
|----------------------------------|-0--------------------------------|
|-0-----------------------2---4----|-----------------0----------------|
|-----------------0----------------|----------------------------------|
|----------------------------------|----------------------------------|

 |    |    |    |     |    |    |
   |
|-0--------------------------------|----------------------------------|
|-----------------0----------------|-0--------------------------------|
|-------------------------2---4----|-----------------0----------------|
|----------------------------------|----------------------------------|

 |    |    |    |     |    |    |
   |
|-------------------------0---1----|-2--------------------------------|
|-0--------------------------------|-----------------2-------3---4----|
|-----------------0----------------|----------------------------------|
|----------------------------------|----------------------------------|

 |    |    |    |     |    |    |
   |
|-0--------------------------------|----------------------------------|
|-----------------0----------------|-0--------------------------------|
|-------------------------2---4----|-----------------0----------------|
|----------------------------------|----------------------------------|

 |    |    |    |     |    |    |
   |
|----------------------------------|----------------------------------|
|-0--------------------------------|-4--------------------------------|
|-----------------0-------2---4----|-----------------4----------------|
|----------------------------------|----------------------------------|

 |    |    |    |     |    |    |
   |
|----------------------------------|----------------------------------|
|-4-----------------------0---3----|-2--------------------------------|
|-----------------4----------------|-----------------2----------------|
|----------------------------------|----------------------------------|

 |    |    |    |     |    |    |
   |
|----------------------------------|----------------------------------|
|-2---------------------------1----|-0--------------------------------|
|-----------------2-------4--------|-----------------0----------------|
|----------------------------------|----------------------------------|

 |    |    |    |     |    |    |
   |
|----------------------------------|-----------------0---0---1--------|
|-0---------------0-------1--------|-2-------2---2--------------------|
|----------------------------------|----------------------------------|
|----------------------------------|----------------------------------|

 |    |    |    |     |    |    |
   |
|-----------------5---5---6---6----|-7---------------7----------------|
|-7-------7---7--------------------|----------------------------------|
|----------------------------------|----------------------------------|
|----------------------------------|----------------------------------|

 |    |    |    |     |    |    |
   |
|-7-------7-------4---4------------|----------------------------------|
|-------------------------7--------|-0---------------0----------------|
|----------------------------------|----------------------------------|
|----------------------------------|----------------------------------|

 |    |    |    |     |    |    |
   |
|----------------------------------|-0---------------0----------------|
|-0-----------------------0---2----|----------------------------------|
|---------2---2---4---4------------|----------------------------------|
|----------------------------------|----------------------------------|

 |    |    |    |     |    |    |
   |
|-0--------------------------------|----------------------------------|
|---------0---0---2---2---4--------|-0--------------------------------|
|----------------------------------|-----------------0----------------|
|----------------------------------|----------------------------------|

 |    |    |    |     |    |    |
   |
|----------------------------------|---------7---7---6---6---4---4----|
|-0--------------------------------|-7--------------------------------|
|---------0---0---2---2---4--------|----------------------------------|
|----------------------------------|----------------------------------|

 |    |    |    |     |    |    |
   |
|---------5---5---4---4---2---2----|---------0---0--------------------|
|-5--------------------------------|-0---------------4---4---2---2----|
|----------------------------------|----------------------------------|
|----------------------------------|----------------------------------|

 |    |    |    |     |    |    |
   |
|----------------------------------|----------------------------------|
|-0---0----------------------------|-0--------------------------------|
|---------4---4---2---2---0---0----|-----------------0----------------|
|----------------------------------|----------------------------------|

 |    |    |    |     |    |    |
   |
|----------------------------------|----------------------------------|
|-0--------------------------------|-2--------------------------------|
|-----------------0-------2---4----|-----------------2----------------|
|----------------------------------|----------------------------------|

 |    |    |    |     |    |    |
   |
|----------------------------------|----------------------------------|
|-2---------------------------1----|-4--------------------------------|
|-----------------2-------4--------|-----------------4----------------|
|----------------------------------|----------------------------------|

 |    |    |    |     |    |    |
   |
|----------------------------------|----------------------------------|
|-4-----------------------2---4----|----------------------------------|
|-----------------4----------------|-2--------------------------------|
|----------------------------------|----------------------------------|

 |    |    |    |     |    |    |
   |
|----------------------------------|----------------------------------|
|----------------------------------|----------------------------------|
|----------------------------------|----------------------------------|
|----------------------------------|----------------------------------|

 |    |    |    |     |    |    |
   |
|----------------------------------|----------------------------------|
|----------------------------------|----------------------------------|
|----------------------------------|----------------------------------|
|----------------------------------|----------------------------------|

 |    |    |    |     |    |    |
   |
|----------------------------------|----------------------------------|
|----------------------------------|-0--------------------------------|
|---------------------0---2---4----|-----------------0----------------|
|----------------------------------|----------------------------------|

 |    |    |    |     |    |    |
   |
|----------------------------------|-0--------------------------------|
|-0-----------------------2---4----|-----------------0----------------|
|-----------------0----------------|----------------------------------|
|----------------------------------|----------------------------------|

 |    |    |    |     |    |    |
   |
|-0--------------------------------|----------------------------------|
|-----------------0----------------|-0--------------------------------|
|-------------------------2---4----|-----------------0----------------|
|----------------------------------|----------------------------------|

 |    |    |    |     |    |    |
   |
|-------------------------0---1----|-2--------------------------------|
|-0--------------------------------|-----------------2-------3---4----|
|-----------------0----------------|----------------------------------|
|----------------------------------|----------------------------------|

 |    |    |    |     |    |    |
   |
|-0--------------------------------|----------------------------------|
|-----------------0----------------|-0--------------------------------|
|-------------------------2---4----|-----------------0----------------|
|----------------------------------|----------------------------------|

 |    |    |    |     |    |    |
   |
|----------------------------------|----------------------------------|
|-0--------------------------------|-0--------------------------------|
|-----------------0-------2---4----|-----------------0----------------|
|----------------------------------|----------------------------------|

 |    |    |    |     |    |    |
   |
|----------------------------------|----------------------------------|
|-0--------------------------------|-0--------------------------------|
|-----------------0-------2---4----|-----------------0----------------|
|----------------------------------|----------------------------------|

 |    |    |    |     |    |    |
   |
|----------------------------------|-0--------------------------------|
|-0-----------------------2---4----|-----------------0----------------|
|-----------------0----------------|----------------------------------|
|----------------------------------|----------------------------------|

 |    |    |    |     |    |    |
   |
|-0--------------------------------|----------------------------------|
|-----------------0----------------|-0--------------------------------|
|-------------------------2---4----|-----------------0----------------|
|----------------------------------|----------------------------------|

 |    |    |    |     |    |    |
   |
|-------------------------0---1----|-2--------------------------------|
|-0--------------------------------|-----------------2-------3---0----|
|-----------------0----------------|----------------------------------|
|----------------------------------|----------------------------------|

 |    |    |    |     |    |    |
   |
|-0--------------------------------|----------------------------------|
|-----------------0----------------|-0--------------------------------|
|-------------------------2---4----|-----------------0----------------|
|----------------------------------|----------------------------------|

 |    |    |    |
|----------------------------------|
|-0--------------------------------|
|----------------------------------|
|----------------------------------|


m/

Find guitar tabs and chords

A B C D E F G H I J K L M N O P Q R S T U V W X Y Z #