La Bamba by The Ventures

La Bamba bass tab by The Ventures

Bass tabs

Ventures_La Bamba

Basstab by Jan Bjorklund, Finland

You are welcome to request for basstabs!
Fingering and positions as suggested by TablEdit,
please use common sense!

TablEdited by Jan Bjorklund
Tuning : E A D G 	Time Signature: 4/4

 |    |    |    |     |    |    |
   |
|----------------------------------|-------------------------2--------|
|----------------------------------|---------2-------3-----------3----|
|-------------------------0---2----|-3-----------3--------------------|
|----------------------------------|----------------------------------|

 |    |    |    |     |    |    |
   |
|---------2---0-----------0--------|-------------------------2--------|
|-----------------3---3-------3----|---------2-------3-----------3----|
|----------------------------------|-3-----------3--------------------|
|----------------------------------|----------------------------------|

 |    |    |    |     |    |    |
   |
|---------2---0-----------0--------|-------------------------2--------|
|-----------------3---3-------3----|---------2-------3-----------3----|
|----------------------------------|-3-----------3--------------------|
|----------------------------------|----------------------------------|

 |    |    |    |     |    |    |
   |
|---------2---0-----------0--------|-------------------------2--------|
|-----------------3---3-------3----|---------2-------3-----------3----|
|----------------------------------|-3-----------3--------------------|
|----------------------------------|----------------------------------|

 |    |    |    |     |    |    |
   |
|---------2---0-----------0--------|-------------------------2--------|
|-----------------3---3-------3----|---------2-------3-----------3----|
|----------------------------------|-3-----------3--------------------|
|----------------------------------|----------------------------------|

 |    |    |    |     |    |    |
   |
|---------2---0-----------0--------|-------------------------2--------|
|-----------------3---3-------3----|---------2-------3-----------3----|
|----------------------------------|-3-----------3--------------------|
|----------------------------------|----------------------------------|

 |    |    |    |     |    |    |
   |
|---------2---0-----------0--------|-------------------------2--------|
|-----------------3---3-------3----|---------2-------3-----------3----|
|----------------------------------|-3-----------3--------------------|
|----------------------------------|----------------------------------|

 |    |    |    |     |    |    |
   |
|---------2---0-----------0--------|-------------------------2--------|
|-----------------3---3-------3----|---------2-------3-----------3----|
|----------------------------------|-3-----------3--------------------|
|----------------------------------|----------------------------------|

 |    |    |    |     |    |    |
   |
|---------2---0-----------0--------|-------------------------2--------|
|-----------------3---3-------3----|---------2-------3-----------3----|
|----------------------------------|-3-----------3--------------------|
|----------------------------------|----------------------------------|

 |    |    |    |     |    |    |
   |
|---------2---0-----------0--------|-------------------------2--------|
|-----------------3---3-------3----|---------2-------3-----------3----|
|----------------------------------|-3-----------3--------------------|
|----------------------------------|----------------------------------|

 |    |    |    |     |    |    |
   |
|---------2---0-----------0--------|-------------------------2--------|
|-----------------3---3-------3----|---------2-------3-----------3----|
|----------------------------------|-3-----------3--------------------|
|----------------------------------|----------------------------------|

 |    |    |    |     |    |    |
   |
|---------2---0-----------0--------|-------------------------2--------|
|-----------------3---3-------3----|---------2-------3-----------3----|
|----------------------------------|-3-----------3--------------------|
|----------------------------------|----------------------------------|

 |    |    |    |     |    |    |
   |
|---------2---0-----------0--------|-------------------------2--------|
|-----------------3---3-------3----|---------2-------3-----------3----|
|----------------------------------|-3-----------3--------------------|
|----------------------------------|----------------------------------|

 |    |    |    |     |    |    |
   |
|---------2---0-----------0--------|-------------------------2--------|
|-----------------3---3-------3----|---------2-------3-----------3----|
|----------------------------------|-3-----------3--------------------|
|----------------------------------|----------------------------------|

 |    |    |    |     |    |    |
   |
|---------2---0-----------0--------|-------------------------2--------|
|-----------------3---3-------3----|---------2-------3-----------3----|
|----------------------------------|-3-----------3--------------------|
|----------------------------------|----------------------------------|

 |    |    |    |     |    |    |
   |
|---------2---0-----------0--------|-------------------------2--------|
|-----------------3---3-------3----|---------2-------3-----------3----|
|----------------------------------|-3-----------3--------------------|
|----------------------------------|----------------------------------|

 |    |    |    |     |    |    |
   |
|---------2---0-----------0--------|-------------------------2--------|
|-----------------3---3-------3----|---------2-------3-----------3----|
|----------------------------------|-3-----------3--------------------|
|----------------------------------|----------------------------------|

 |    |    |    |     |    |    |
   |
|---------2---0-----------0--------|-------------------------2--------|
|-----------------3---3-------3----|---------2-------3-----------3----|
|----------------------------------|-3-----------3--------------------|
|----------------------------------|----------------------------------|

 |    |    |    |     |    |    |
   |
|---------2---0-----------0--------|-------------------------2---0----|
|-----------------3---3-------3----|---------2-------3----------------|
|----------------------------------|-3-----------3--------------------|
|----------------------------------|----------------------------------|

 |    |    |    |     |    |    |
   |
|----------------------------------|----------------------------------|
|---------------------0------------|-----------------0-------4---0----|
|-------------------------4---2----|-0-------4---0--------------------|
|----------------------------------|----------------------------------|

 |    |    |    |     |    |    |
   |
|----------------------------------|----------------------------------|
|---------4---2---0---0---2---0----|-----------------0-------4---0----|
|----------------------------------|-0-------4---0--------------------|
|----------------------------------|----------------------------------|

 |    |    |    |     |    |    |
   |
|----------------------------------|----------------------------------|
|---------4---2---0---0---2---0----|-----------------0-------4---0----|
|----------------------------------|-0-------4---0--------------------|
|----------------------------------|----------------------------------|

 |    |    |    |     |    |    |
   |
|----------------------------------|----------------------------------|
|---------4---2---0---0---2---0----|-----------------0-------4---0----|
|----------------------------------|-0-------4---0--------------------|
|----------------------------------|----------------------------------|

 |    |    |    |     |    |    |
   |
|----------------------------------|----------------------------------|
|---------4---2---0---0---2---0----|-----------------0-------4---0----|
|----------------------------------|-0-------4---0--------------------|
|----------------------------------|----------------------------------|

 |    |    |    |     |    |    |
   |
|----------------------------------|----------------------------------|
|---------4---2---0---0---2---0----|-----------------0-------4---0----|
|----------------------------------|-0-------4---0--------------------|
|----------------------------------|----------------------------------|

 |    |    |    |     |    |    |
   |
|----------------------------------|----------------------------------|
|---------4---2---0---0---2---0----|-----------------0-------4---0----|
|----------------------------------|-0-------4---0--------------------|
|----------------------------------|----------------------------------|

 |    |    |    |     |    |    |
   |
|----------------------------------|----------------------------------|
|---------4---2---0---0---2---0----|-----------------0-------4---0----|
|----------------------------------|-0-------4---0--------------------|
|----------------------------------|----------------------------------|

 |    |    |    |     |    |    |
   |
|----------------------------------|----------------------------------|
|---------4---2---0---0---2---0----|-----------------0-------4---0----|
|----------------------------------|-0-------4---0--------------------|
|----------------------------------|----------------------------------|

 |    |    |    |     |    |    |
   |
|----------------------------------|----------------------------------|
|---------4---2---0---0---2---0----|-----------------0-------4---0----|
|----------------------------------|-0-------4---0--------------------|
|----------------------------------|----------------------------------|

 |    |    |    |     |    |    |
   |
|----------------------------------|----------------------------------|
|---------4---2---0---0---2---0----|-----------------0-------4---0----|
|----------------------------------|-0-------4---0--------------------|
|----------------------------------|----------------------------------|

 |    |    |    |     |    |    |
   |
|----------------------------------|----------------------------------|
|---------4---2---0---0---2---0----|-----------------0-------4---0----|
|----------------------------------|-0-------4---0--------------------|
|----------------------------------|----------------------------------|

 |    |    |    |     |    |    |
   |
|----------------------------------|----------------------------------|
|---------4---2---0---0---2---0----|-----------------0-------4---0----|
|----------------------------------|-0-------4---0--------------------|
|----------------------------------|----------------------------------|

 |    |    |    |     |    |    |
   |
|----------------------------------|----------------------------------|
|---------4---2---0---0---2---0----|-----------------0-------4---0----|
|----------------------------------|-0-------4---0--------------------|
|----------------------------------|----------------------------------|

 |    |    |    |     |    |    |
   |
|----------------------------------|----------------------------------|
|---------4---2---0---0---2---0----|-----------------0-------4---2----|
|----------------------------------|-0-------4---0--------------------|
|----------------------------------|----------------------------------|

 |    |    |    |     |    |    |
   |
|----------------------------------|-------------------------2--------|
|---------------------3---2---0----|---------2-------3-----------3----|
|----------------------------------|-3-----------3--------------------|
|----------------------------------|----------------------------------|

 |    |    |    |     |    |    |
   |
|---------2---0-----------0--------|-------------------------2--------|
|-----------------3---3-------3----|---------2-------3-----------3----|
|----------------------------------|-3-----------3--------------------|
|----------------------------------|----------------------------------|

 |    |    |    |     |    |    |
   |
|---------2---0-----------0--------|-------------------------2--------|
|-----------------3---3-------3----|---------2-------3-----------3----|
|----------------------------------|-3-----------3--------------------|
|----------------------------------|----------------------------------|

 |    |    |    |     |    |    |
   |
|---------2---0-----------0--------|-------------------------2--------|
|-----------------3---3-------3----|---------2-------3-----------3----|
|----------------------------------|-3-----------3--------------------|
|----------------------------------|----------------------------------|

 |    |    |    |     |    |    |
   |
|---------2---0-----------0--------|-------------------------2--------|
|-----------------3---3-------3----|---------2-------3-----------3----|
|----------------------------------|-3-----------3--------------------|
|----------------------------------|----------------------------------|

 |    |    |    |     |    |    |
   |
|---------2---0-----------0--------|-------------------------2--------|
|-----------------3---3-------3----|---------2-------3-----------3----|
|----------------------------------|-3-----------3--------------------|
|----------------------------------|----------------------------------|

 |    |    |    |     |    |    |
   |
|---------2---0-----------0--------|-------------------------2--------|
|-----------------3---3-------3----|---------2-------3-----------3----|
|----------------------------------|-3-----------3--------------------|
|----------------------------------|----------------------------------|

 |    |    |    |     |    |    |
   |
|---------2---0-----------0--------|-------------------------2--------|
|-----------------3---3-------3----|---------2-------3-----------3----|
|----------------------------------|-3-----------3--------------------|
|----------------------------------|----------------------------------|

 |    |    |    |     |    |    |
   |
|---------2---0-----------0--------|-------------------------2--------|
|-----------------3---3-------3----|---------2-------3-----------3----|
|----------------------------------|-3-----------3--------------------|
|----------------------------------|----------------------------------|

 |    |    |    |     |    |    |
   |
|---------2---0-----------0--------|-------------------------2--------|
|-----------------3---3-------3----|---------2-------3-----------3----|
|----------------------------------|-3-----------3--------------------|
|----------------------------------|----------------------------------|

 |    |    |    |
|---------2---0--------------------|
|----------------------------------|
|----------------------------------|
|----------------------------------|


m/

Find guitar tabs and chords

A B C D E F G H I J K L M N O P Q R S T U V W X Y Z #