Journey To The Stars by The Ventures

Journey To The Stars bass tab by The Ventures

Bass tabs

Basstab by Jan Bjorklund, Finland;
[email protected]
You are welcome to request for basstabs!
Bienvenidos a pedirme transcripciones para el bajo!
Be shure to use a monospaced font!

TablEdited by Jan Bjorklund
Tuning : E A D G 	Time Signature: 4/4

 |    |    |    |    |    |    |    |
|--------------------------------|--------------------------------|
|---------------I N T R O  W I T H O U T B A S S ---------------|
|--------------------------------|--------------------------------|
|--------------------------------|--------------------------------|

 |    |    |    |    |    |    |    |
|--------------------------------|--------------------------------|
|--------------------------------|--------------------------------|
|--------------------------------|--------------------------------|
|--------------------------------|--------------------------------|

 |    |    |    |    |    |    |    |
|--------------------------------|--------------------------------|
|--------------------------------|--------------------------------|
|--------------------------------|--------------------------------|
|--------------------------------|--------------------------------|

 |    |    |    |    |    |    |    |
|--------------------------------|--------------------------------|
|--------------------------------|--------------------------------|
|0-------------------------------|3-------------------------------|
|--------------------------------|--------------------------------|

 |    |    |    |    |    |    |    |
|--------------------------------|--------------------------------|
|--------------------------------|--------------------------------|
|0-------------------------------|0-------------------------------|
|--------------------------------|--------------------------------|

 |    |    |    |    |    |    |    |
|--------------------------------|--------------------------------|
|--------------------------------|--------------------------------|
|0-----------0---0---0-------0---|3-----------3---3---3-------3---|
|--------------------------------|--------------------------------|

 |    |    |    |    |    |    |    |
|--------------------------------|--------------------------------|
|--------------------------------|--------------------------------|
|5-----------5---5---5-------5---|0---0---0---0---0---0---5/--3---|
|--------------------------------|--------------------------------|

 |    |    |    |    |    |    |    |
|2-------------------------------|--------------------------------|
|--------2-------2-------2-------|2---------------2---------------|
|--------------------------------|--------2---------------2-------|
|--------------------------------|--------------------------------|

 |    |    |    |    |    |    |    |
|----------------2---------------|--------------------------------|
|2-------2---------------2-------|0---------------0---------------|
|--------------------------------|--------0---------------0-------|
|--------------------------------|--------------------------------|

 |    |    |    |    |    |    |    |
|--------------------------------|--------------------------------|
|2---------------2---------------|2---------------2---------------|
|--------2---------------2-------|--------2---------------2-------|
|--------------------------------|--------------------------------|

 |    |    |    |    |    |    |    |
|----------------2---------------|------------------------0-------|
|2-------2---------------2-------|2---2---2-------2---------------|
|--------------------------------|--------------------------------|
|--------------------------------|--------------------------------|

 |    |    |    |    |    |    |    |
|2---------------2---------------|--------------------------------|
|--------2---------------2-------|2---------------2---------------|
|--------------------------------|--------2---------------2-------|
|--------------------------------|--------------------------------|

 |    |    |    |    |    |    |    |
|2---------------2---------------|--------------------------------|
|--------2---------------2-------|0---------------0---------------|
|--------------------------------|--------0---------------0-------|
|--------------------------------|--------------------------------|

 |    |    |    |    |    |    |    |
|--------------------------------|--------------------------------|
|2---------------2---------------|2---------------2---------------|
|--------2---------------2-------|--------2---------------2-------|
|--------------------------------|--------------------------------|

 |    |    |    |    |    |    |    |
|--------------------------------|--------------------------------|
|--------------------------------|--------------------------------|
|0-------0-------0---0---0---1/2-|3-------3---3---3---3---3---3---|
|--------------------------------|--------------------------------|

 |    |    |    |    |    |    |    |
|--------------------------------|------------------------4-------|
|--------------------------------|--------------------------------|
|5-------5---5---5---5---5---5---|0-------0-------0---------------|
|--------------------------------|--------------------------------|

 |    |    |    |    |    |    |    |
|2---------------2---------------|--------------------------------|
|--------2---------------2-------|2---------------2---------------|
|--------------------------------|--------2---------------2-------|
|--------------------------------|--------------------------------|

 |    |    |    |    |    |    |    |
|----------------2---------------|--------------------------------|
|2-------2---------------2-------|0---------------0---------------|
|--------------------------------|--------0---------------0-------|
|--------------------------------|--------------------------------|

 |    |    |    |    |    |    |    |
|--------------------------------|--------------------------------|
|2---------------2---------------|2---------------2---------------|
|--------2---------------2-------|--------2-----------------------|
|--------------------------------|--------------------------------|

 |    |    |    |    |    |    |    |
|2---------------2---------------|------------------------0---1---|
|--------2---------------2-------|2-------2---2---2---------------|
|--------------------------------|--------------------------------|
|--------------------------------|--------------------------------|

 |    |    |    |    |    |    |    |
|2-------------------------------|--------------------------------|
|--------2-------2-------2-------|2---------------2---------------|
|--------------------------------|--------2---------------2-------|
|--------------------------------|--------------------------------|

 |    |    |    |    |    |    |    |
|2---------------2---------------|--------------------------------|
|--------2---------------2-------|0---------------0---------------|
|--------------------------------|--------0---------------0-------|
|--------------------------------|--------------------------------|

 |    |    |    |    |    |    |    |
|--------------------------------|--------------------------------|
|2---------------2---------------|2---------------2---------------|
|--------2---------------2-------|--------2---------------2-------|
|--------------------------------|--------------------------------|

 |    |    |    |    |    |    |    |
|2---------------2---------------|2-------------------------------|
|--------2---------------2-------|----------------2-------4---2---|
|--------------------------------|--------3-----------------------|
|--------------------------------|--------------------------------|

 |    |    |    |    |    |    |    |
|--------------------------------|--------------------------------|
|0-------0---0-------------------|0-------0---------------0-------|
|----------------0-------2---3---|------------0-------------------|
|--------------------------------|--------------------------------|

 |    |    |    |    |    |    |    |
|--------------------------------|--------------------------------|
|--------------------------------|--------------------------------|
|3-------3---------------2---3---|3-------3---------------2---3---|
|------------3-------------------|------------3-------------------|

 |    |    |    |    |    |    |    |
|--------------------------------|--------------------------------|
|0-------0-----------------------|0-----------------------0-------|
|------------0-----------2---3---|------------0---0---------------|
|--------------------------------|--------------------------------|

 |    |    |    |    |    |    |    |
|--------------------------------|--------------------------------|
|--------------------------------|--------------------0---1---2---|
|3-----------------------2---2---|3-----------3---4---------------|
|------------3---3---------------|--------------------------------|

 |    |    |    |    |    |    |    |
|--------------------------------|--------------------------------|
|3-----------------------1---1---|3-----------------------3-------|
|------------3---3---------------|------------3---3---------------|
|--------------------------------|--------------------------------|

 |    |    |    |    |    |    |    |
|--------------------------------|--------------------------------|
|2-----------------------0---1---|2-----------------------0---2---|
|------------2---2---------------|------------2---2---------------|
|--------------------------------|--------------------------------|

 |    |    |    |    |    |    |    |
|--------------------------------|--------------------------------|
|3-----------------------1---2---|3-----------------------3-------|
|------------3---3---------------|------------3---3---------------|
|--------------------------------|--------------------------------|

 |    |    |    |    |    |    |    |
|--------------------------------|--------------------------------|
|2---2---2---2---2---2---2---2---|2-------------------------------|
|--------------------------------|--------------------------------|
|--------------------------------|--------------------------------|

 |    |    |    |    |    |    |    |
|--------------------------------|--------------------------------|
|--------------------------------|--------------------------------|
|--------------------------------|--------------------------------|
|--------------------------------|--------------------------------|

 |    |    |    |    |    |    |    |
|--------------------------------|--------------------------------|
|--------------------------------|--------------------------------|
|--------------------------------|--------------------------------|
|--------------------------------|--------------------------------|

 |    |    |    |    |    |    |    |
|--------------------------------|--------------------------------|
|--------------------------------|--------------------------------|
|0---------------0---------------|3---------------3---------------|
|--------------------------------|--------------------------------|

 |    |    |    |    |    |    |    |
|--------------------------------|--------------------------------|
|0---------------0-------0-------|--------------------------------|
|--------------------------------|--------------------------------|
|--------------------------------|5---0---5---0---5---0---5/--0---|

 |    |    |    |    |    |    |    |
|2---------------2---------------|--------------------------------|
|--------2---------------2-------|2---------------2---------------|
|--------------------------------|--------2---------------2-------|
|--------------------------------|--------------------------------|

 |    |    |    |    |    |    |    |
|----------------2---------------|--------------------------------|
|2-------2---------------2-------|0---------------0---------------|
|--------------------------------|--------0---------------0-------|
|--------------------------------|--------------------------------|

 |    |    |    |    |    |    |    |
|--------------------------------|--------------------------------|
|2---------------2---------------|2---------------2---------------|
|--------2---------------2-------|--------2---------------2-------|
|--------------------------------|--------------------------------|

 |    |    |    |    |    |    |    |
|----------------2---------------|------------------------0-------|
|2-------2---------------2-------|2-------1-------2---------------|
|--------------------------------|--------------------------------|
|--------------------------------|--------------------------------|

 |    |    |    |    |    |    |    |
|2---------------2---------------|--------------------------------|
|--------2---------------2-------|2---------------2---------------|
|--------------------------------|------------------------2-------|
|--------------------------------|--------------------------------|

 |    |    |    |    |    |    |    |
|2---------------2---------------|--------------------------------|
|--------2---------------2-------|0---------------0---------------|
|--------------------------------|--------0---------------0-------|
|--------------------------------|--------------------------------|

 |    |    |    |    |    |    |    |
|--------------------------------|--------------------------------|
|2---------------2---------------|2---------------2---------------|
|--------2---------------2-------|--------2---------------2-------|
|--------------------------------|--------------------------------|

 |    |    |    |    |    |    |    |
|2-------------------------------|--------------------------------|
|--------------------------------|--------------------------------|
|--------------------------------|--------------------------------|
|--------------------------------|--------------------------------|

 |    |    |    |    |    |    |    |
|--------------------------------|2-------------------------------|
|--------------------------------|--------------------------------|
|--------------------------------|--------------------------------|
|--------------------------------|--------------------------------|



m/

Find guitar tabs and chords

A B C D E F G H I J K L M N O P Q R S T U V W X Y Z #