Instant Guitars by The Ventures

Instant Guitars bass tab by The Ventures

Bass tabs

ventures_instant guitars

Basstab by Jan Bjorklund, Finland

You are welcome to request for basstabs!
Fingering and positions as suggested by TablEdit,
please use common sense!

Tuning : E A D G 	Time Signature: 4/4

 |    |    |    |     |    |    |
   |
|----------------------------------|----------------------------------|
|-------------------------1--------|-2--------------------------------|
|----------------------------------|----------------------------------|
|----------------------------------|----------------------------------|

 |    |    |    |     |    |    |
   |
|----------------------------------|----------------------------------|
|-------------------------2--------|----------------------------------|
|----------------------------------|-3--------------------------------|
|----------------------------------|----------------------------------|

 |    |    |    |     |    |    |
   |
|----------------------------------|----------------------------------|
|----------------------------------|----------------------------------|
|-------------------------3--------|-0--------------------------------|
|----------------------------------|----------------------------------|

 |    |    |    |     |    |    |
   |
|-------------------------0--------|----------------------------------|
|----------------------------------|-0-------0-------0-------0--------|
|----------------------------------|----------------------------------|
|----------------------------------|----------------------------------|

 |    |    |    |     |    |    |
   |
|----------------------------------|-----------------4---4---5---4----|
|----------------------------------|-2-----------5--------------------|
|-2-------2-------2-------2--------|----------------------------------|
|----------------------------------|----------------------------------|

 |    |    |    |     |    |    |
   |
|-----------------4---4---5---4----|-----------------0---0---2---0----|
|-2-----------5--------------------|-------------2--------------------|
|----------------------------------|-3--------------------------------|
|----------------------------------|----------------------------------|

 |    |    |    |     |    |    |
   |
|-----------------0---0---2---0----|----------------------------------|
|-------------2--------------------|-----------------2---2---4---2----|
|-3--------------------------------|-0-----------4--------------------|
|----------------------------------|----------------------------------|

 |    |    |    |     |    |    |
   |
|----------------------------------|-----------------2---2---4---2----|
|-----------------2---2---4---2----|-------------4--------------------|
|-0-----------4--------------------|-5--------------------------------|
|----------------------------------|----------------------------------|

 |    |    |    |     |    |    |
   |
|-0--------------------------------|----------------------------------|
|---------4-------2-------0--------|-----------------0-------2---2----|
|----------------------------------|---------2---2--------------------|
|----------------------------------|-3--------------------------------|

 |    |    |    |     |    |    |
   |
|-0--------------------------------|-----------------0-------2---0----|
|---------3-------2-------0--------|-------------2--------------------|
|----------------------------------|-3-------3------------------------|
|----------------------------------|----------------------------------|

 |    |    |    |     |    |    |
   |
|-5-----------------------2--------|----------------------------------|
|-------------2---5---5-------5----|-----------------2-------4---2----|
|---------3------------------------|-0-------4---4--------------------|
|----------------------------------|----------------------------------|

 |    |    |    |     |    |    |
   |
|----------------------------------|----------------------------------|
|-----------------2-------4---2----|-0-------0-------0-------0--------|
|-0-------4---4--------------------|----------------------------------|
|----------------------------------|----------------------------------|

 |    |    |    |     |    |    |
   |
|----------------------------------|-----------------4-------5---4----|
|-------------------------1--------|-2-------2---5--------------------|
|-2-------2-------2----------------|----------------------------------|
|----------------------------------|----------------------------------|

 |    |    |    |     |    |    |
   |
|-----------------4-------5---4----|-----------------0-------2---0----|
|-2-------2---5--------------------|-------------2--------------------|
|----------------------------------|-3-------3------------------------|
|----------------------------------|----------------------------------|

 |    |    |    |     |    |    |
   |
|-----------------0-------2---0----|----------------------------------|
|-------------2--------------------|-----------------2-------4---2----|
|-3-------3------------------------|-0-------0---4--------------------|
|----------------------------------|----------------------------------|

 |    |    |    |     |    |    |
   |
|----------------------------------|-----------------2-------4---2----|
|-----------------2-------4---2----|-------------4--------------------|
|-0-------0---4--------------------|-5-------5------------------------|
|----------------------------------|----------------------------------|

 |    |    |    |     |    |    |
   |
|-0-------0------------------------|-----------------4-------5---4----|
|-----------------4-------3--------|-2-------2---5--------------------|
|----------------------------------|----------------------------------|
|----------------------------------|----------------------------------|

 |    |    |    |     |    |    |
   |
|-----------------4-------5---4----|-----------------0-------2---0----|
|-2-------2---5--------------------|-------------2--------------------|
|----------------------------------|-3-------3------------------------|
|----------------------------------|----------------------------------|

 |    |    |    |     |    |    |
   |
|-----------------0-------2---0----|----------------------------------|
|-------------2--------------------|-----------------2-------4---2----|
|-3-------3------------------------|-0-------0---4--------------------|
|----------------------------------|----------------------------------|

 |    |    |    |     |    |    |
   |
|----------------------------------|-----------------2-------4---2----|
|-----------------2-------4---2----|-------------4--------------------|
|-0-------0---4--------------------|-5-------5------------------------|
|----------------------------------|----------------------------------|

 |    |    |    |     |    |    |
   |
|----------------------------------|-----------------4-------5---4----|
|----------------------------------|---------2---5--------------------|
|-2-------2-------2---0------------|----------------------------------|
|-------------------------3---2----|-0--------------------------------|

 |    |    |    |     |    |    |
   |
|-----------------4---4---5---4----|-----------------0---0---2---0----|
|-2-----------5--------------------|-------------2--------------------|
|----------------------------------|-3--------------------------------|
|----------------------------------|----------------------------------|

 |    |    |    |     |    |    |
   |
|-----------------0---0---2---0----|----------------------------------|
|-------------2--------------------|-----------------2---2---4---2----|
|-3--------------------------------|-0-----------4--------------------|
|----------------------------------|----------------------------------|

 |    |    |    |     |    |    |
   |
|----------------------------------|-----------------2---2---4---2----|
|-----------------2---2---4---2----|-------------4--------------------|
|-0-----------4--------------------|-5-------5------------------------|
|----------------------------------|----------------------------------|

 |    |    |    |     |    |    |
   |
|-0-------0-------0-------0--------|----------------------------------|
|----------------------------------|-----------------0---0---2---0----|
|----------------------------------|---------2---2--------------------|
|----------------------------------|-3---3----------------------------|

 |    |    |    |     |    |    |
   |
|----------------------------------|-----------------0---0---2---0----|
|-----------------0---0---2---0----|---------2---2--------------------|
|---------2---2--------------------|-3---3----------------------------|
|-3---3----------------------------|----------------------------------|

 |    |    |    |     |    |    |
   |
|-----0---2---2---0-------2--------|----------------------------------|
|----------------------------------|-----------------2---2---4---2----|
|----------------------------------|-0---0---4---4--------------------|
|----------------------------------|----------------------------------|

 |    |    |    |     |    |    |
   |
|----------------------------------|----------------------------------|
|-----------------2---2---4---2----|-0-------0-------0-------0--------|
|-0---0---4---4--------------------|----------------------------------|
|----------------------------------|----------------------------------|

 |    |    |    |     |    |    |
   |
|----------------------------------|-----------------4---4---5---4----|
|----------------------------------|-------------5--------------------|
|-2-------2-------2---0------------|----------------------------------|
|-------------------------3---2----|-0--------------------------------|

 |    |    |    |     |    |    |
   |
|-----------------4---4---5---4----|-----------------0---0---2---0----|
|-2-----------5--------------------|-------------2--------------------|
|----------------------------------|-3--------------------------------|
|----------------------------------|----------------------------------|

 |    |    |    |     |    |    |
   |
|-----------------0---0---2---0----|----------------------------------|
|-------------2--------------------|-----------------2---2---4---2----|
|-3--------------------------------|-0-----------4--------------------|
|----------------------------------|----------------------------------|

 |    |    |    |     |    |    |
   |
|----------------------------------|-----------------2---2---4---2----|
|-----------------2---2---4---2----|-------------4--------------------|
|-0-----------4--------------------|-5---5----------------------------|
|----------------------------------|----------------------------------|

 |    |    |    |     |    |    |
   |
|-----------------7---7---9---7----|-----------------2---2---4---2----|
|-------------9--------------------|-------------4--------------------|
|-10-------------------------------|-5--------------------------------|
|----------------------------------|----------------------------------|

 |    |    |    |     |    |    |
   |
|----------------------------------|-----------------2---2---4---2----|
|-----------------0---0---2---0----|-------------4--------------------|
|-------------2--------------------|-5--------------------------------|
|-3--------------------------------|----------------------------------|

 |    |    |    |     |    |    |
   |
|----------------------------------|----------------------------------|
|-------------------------1--------|-2--------------------------------|
|----------------------------------|----------------------------------|
|-3--------------------------------|----------------------------------|

 |    |    |    |     |    |    |
   |
|----------------------------------|----------------------------------|
|-------------------------2--------|----------------------------------|
|----------------------------------|-3--------------------------------|
|----------------------------------|----------------------------------|

 |    |    |    |     |    |    |
   |
|----------------------------------|----------------------------------|
|----------------------------------|----------------------------------|
|-------------------------3--------|-0--------------------------------|
|----------------------------------|----------------------------------|

 |    |    |    |     |    |    |
   |
|-------------------------0--------|----------------------------------|
|----------------------------------|-0---------------0----------------|
|----------------------------------|---------3---------------3--------|
|----------------------------------|----------------------------------|

 |    |    |    |
|----------------------------------|
|----------------------------------|
|----------------------------------|
|-3---------------3----------------|


m/

Find guitar tabs and chords

A B C D E F G H I J K L M N O P Q R S T U V W X Y Z #