Honky Tonk by The Ventures

Honky Tonk bass tab by The Ventures

Bass tabs

Ventures_Honky Tonk(From The Ventures Walk Don't Run
Album)

Basstab by Jan Bjorklund, Finland

You are welcome to request for basstabs!
Fingering and positions as suggested by TablEdit,
please use common sense!

TablEdited by Jan Bjorklund
Tuning : E A D G 	Time Signature: 12/8

 |      |      |      |
|--------------------------------------------------|
|--------------------------------------------------|
|-------------------------2-------2---4-------2----|
|-0-------0---4-------4----------------------------|

 |      |      |      |
|--------------------------------------------------|
|-------------------------2-------2---4-------2----|
|-0-------0---4-------4----------------------------|
|--------------------------------------------------|

 |      |      |      |
|--------------------------------------------------|
|--------------------------------------------------|
|-------------------------2-------2---4-------2----|
|-0-------0---4-------4----------------------------|

 |      |      |      |
|--------------------------------------------------|
|-2-------2---0-------0----------------------------|
|-------------------------4-------4---2-------2----|
|--------------------------------------------------|

 |      |      |      |
|--------------------------------------------------|
|-------------------------2-------2---4-------4----|
|-0-------0---4-------4----------------------------|
|--------------------------------------------------|

 |      |      |      |
|-0-------0----------------------------------------|
|-------------4-------4---2-------2----------------|
|-------------------------------------4-------4----|
|--------------------------------------------------|

 |      |      |      |
|--------------------------------------------------|
|-2-------2---2------------------------------------|
|---------------------4---2-------2---4-------2----|
|--------------------------------------------------|

 |      |      |      |
|--------------------------------------------------|
|--------------------------------------------------|
|-------------------------0-------0---1-------1----|
|-0-------0---4-------4----------------------------|

 |      |      |      |
|-------------------------------------1------------|
|-------------1-------1---4-------4-----------4----|
|-2-------2----------------------------------------|
|--------------------------------------------------|

 |      |      |      |
|--------------------------------------------------|
|-------------------------2-------2---4-------2----|
|-0-------0---4-------4----------------------------|
|--------------------------------------------------|

 |      |      |      |
|--------------------------------------------------|
|--------------------------------------------------|
|-------------------------0-------0---1------------|
|-0-------0---4-------4----------------------------|

 |      |      |      |
|--------------------------------------------------|
|--------------------------------------------------|
|---------2---2-------2---2-------2---2-------2----|
|--------------------------------------------------|

 |      |      |      |
|--------------------------------------------------|
|--------------------------------------------------|
|-------------4-----------2-----------0-------2----|
|-0-------4-----------4-----------4----------------|

 |      |      |      |
|--------------------------------------------------|
|-------------4-----------2-----------0-------2----|
|-0-------4-----------4-----------4----------------|
|--------------------------------------------------|

 |      |      |      |
|--------------------------------------------------|
|--------------------------------------------------|
|-------------4-----------2-----------0-------2----|
|-0-------4-----------4-----------4----------------|

 |      |      |      |
|--------------------------------------------------|
|--------------------------------------------------|
|-------------4-----------2-----------0-------2----|
|-0-------4-----------4-----------4----------------|

 |      |      |      |
|--------------------------------------------------|
|-------------------------2-------2----------------|
|-0-------0---4-------4---------------4-------4----|
|--------------------------------------------------|

 |      |      |      |
|--------------------------------------------------|
|-------------------------2-------2----------------|
|-0-------0---4-------4---------------4-------4----|
|--------------------------------------------------|

 |      |      |      |
|--------------------------------------------------|
|--------------------------------------------------|
|-------------------------2-------2---4-------2----|
|-0-------0---4-------4----------------------------|

 |      |      |      |
|--------------------------------------------------|
|-0-------0----------------------------------------|
|-------------4-------4---2-------2----------------|
|-------------------------------------4-------4----|

 |      |      |      |
|-------------------------------------1------------|
|-------------1-------1---4-------4-----------4----|
|-2-------2----------------------------------------|
|--------------------------------------------------|

 |      |      |      |
|--------------------------------------------------|
|-------------------------2-------2---4-------2----|
|-0-------0---4-------4----------------------------|
|--------------------------------------------------|

 |      |      |      |
|--------------------------------------------------|
|--------------------------------------------------|
|-------------------------0-------0---1------------|
|-0-------0---4-------4----------------------------|

 |      |      |      |
|--------------------------------------------------|
|--------------------------------------------------|
|---------2---2-------2---2-------2---2-------2----|
|--------------------------------------------------|

 |      |      |      |
|--------------------------------------------------|
|--------------------------------------------------|
|-------------------------2-------2----------------|
|-0-------0---4-------4---------------4-------4----|

 |      |      |      |
|--------------------------------------------------|
|-------------------------2-------2----------------|
|-0-------0---4-------4---------------4-------4----|
|--------------------------------------------------|

 |      |      |      |
|--------------------------------------------------|
|--------------------------------------------------|
|-------------------------2-------2---4-------4----|
|-0-------0---4-------4----------------------------|

 |      |      |      |
|--------------------------------------------------|
|-0-------0----------------------------------------|
|-------------4-------4---2-------2----------------|
|-------------------------------------4-------4----|

 |      |      |      |
|--------------------------------------------------|
|-------------------------2-------2---4-------4----|
|-0-------0---4-------4----------------------------|
|--------------------------------------------------|

 |      |      |      |
|-0-------0----------------------------------------|
|-------------4-------4---2-------2----------------|
|-------------------------------------4-------4----|
|--------------------------------------------------|

 |      |      |      |
|--------------------------------------------------|
|--------------------------------------------------|
|-------------------------2-------2---4-------4----|
|-0-------0---4-------4----------------------------|

 |      |      |      |
|--------------------------------------------------|
|-0-------0----------------------------------------|
|-------------4-------4---2-------2----------------|
|-------------------------------------4-------4----|

 |      |      |      |
|-------------------------------------1------------|
|-------------1-------1---4-------4-----------4----|
|-2-------2----------------------------------------|
|--------------------------------------------------|

 |      |      |      |
|--------------------------------------------------|
|-------------------------2-------2---4-------2----|
|-0-------0---4-------4----------------------------|
|--------------------------------------------------|

 |      |      |      |
|--------------------------------------------------|
|--------------------------------------------------|
|-------------------------2-------2---4-------2----|
|-0-------0---4-------4----------------------------|

 |      |      |      |
|--------------------------------------------------|
|--------------------------------------------------|
|---------2---2-------2---2-------2---2-------2----|
|--------------------------------------------------|

 |      |      |      |
|--------------------------------------------------|
|--------------------------------------------------|
|---------------------------------2---2------------|
|-0------------------------------------------------|

 |      |      |      |
|--------------------------------------------------|
|--------------------------------------------------|
|-0-------------------------------2---2------------|
|--------------------------------------------------|

 |      |      |      |
|--------------------------------------------------|
|--------------------------------------------------|
|--------------------------------------------------|
|-0-----------------------4------------------------|

 |      |      |      |
|--------------------------------------------------|
|-0-------0----------------------------------------|
|-------------4-------4---2-------2----------------|
|-------------------------------------4-------4----|

 |      |      |      |
|--------------------------------------------------|
|-------------------------2-------2---4-------2----|
|-0-------0---4-------4----------------------------|
|--------------------------------------------------|

 |      |      |      |
|--------------------------------------------------|
|-------------------------2-------2---4-------2----|
|-0-------0---2-------2----------------------------|
|--------------------------------------------------|

 |      |      |      |
|--------------------------------------------------|
|--------------------------------------------------|
|-------------------------2-------2---4-------4----|
|-0-------0---4-------4----------------------------|

 |      |      |      |
|--------------------------------------------------|
|--------------------------------------------------|
|-------------------------0-------0---1-------1----|
|-0-------0---4-------4----------------------------|

 |      |      |      |
|-------------------------------------1------------|
|-------------1-------1---4-------4-----------4----|
|-2-------2----------------------------------------|
|--------------------------------------------------|

 |      |      |      |
|--------------------------------------------------|
|-------------------------2-------2---4-------2----|
|-0-------0---4-------4----------------------------|
|--------------------------------------------------|

 |      |      |      |
|--------------------------------------------------|
|--------------------------------------------------|
|-------------------------0-------0---1-------1----|
|-0-------0---4-------4----------------------------|

 |      |      |      |
|--------------------------------------------------|
|--------------------------------------------------|
|-2-------2---2-------2---2-------2---2-------2----|
|--------------------------------------------------|

 |      |      |      |
|--------------------------------------------------|
|--------------------------------------------------|
|-------------------------2-------2---4---2--------|
|-0-------0---4-------4-----------------------4----|

 |      |      |      |
|--------------------------------------------------|
|-------------------------2-------2---4---2--------|
|-0-------0---4-------4-----------------------4----|
|--------------------------------------------------|

 |      |      |      |
|--------------------------------------------------|
|--------------------------------------------------|
|-------------------------2-------2---4-------2----|
|-0-------0---4-------4----------------------------|

 |      |      |      |
|--------------------------------------------------|
|-0-------0----------------------------------------|
|-------------4-------4---2-------2----------------|
|-------------------------------------4-------4----|

 |      |      |      |
|--------------------------------------------------|
|-------------------------2-------2---4-------2----|
|-0-------0---4-------4----------------------------|
|--------------------------------------------------|

 |      |      |      |
|--------------------------------------------------|
|-------------------------2-------2---4-------2----|
|-0-------0---4-------4----------------------------|
|--------------------------------------------------|

 |      |      |      |
|--------------------------------------------------|
|--------------------------------------------------|
|-------------------------2-------2---4-------2----|
|-0-------0---4-------4----------------------------|

 |      |      |      |
|--------------------------------------------------|
|--------------------------------------------------|
|-------------------------0-------0---1-------1----|
|-0-------0---4-------4----------------------------|

 |      |      |      |
|-------------------------------------1------------|
|-------------1-------1---4-------4-----------4----|
|-2-------2----------------------------------------|
|--------------------------------------------------|

 |      |      |      |
|--------------------------------------------------|
|-------------------------2-------2---4-------2----|
|-0-------0---4-------4----------------------------|
|--------------------------------------------------|

 |      |      |      |
|--------------------------------------------------|
|--------------------------------------------------|
|-------------------------0-------0---1------------|
|-0-------0---4-------4----------------------------|

 |      |      |      |
|--------------------------------------------------|
|--------------------------------------------------|
|---------2---2-------2---2-------2---2-------2----|
|--------------------------------------------------|

 |      |      |      |
|--------------------------------------------------|
|--------------------------------------------------|
|-------------------------2-------2----------------|
|-0-------0---4-------4---------------4-------4----|

 |      |      |      |
|--------------------------------------------------|
|-------------------------2-------2----------------|
|-0-------0---4-------4---------------4-------4----|
|--------------------------------------------------|

 |      |      |      |
|--------------------------------------------------|
|--------------------------------------------------|
|-------------------------2-------2----------------|
|-0-------0---4-------4---------------4-------4----|

 |      |      |      |
|--------------------------------------------------|
|--------------------------------------------------|
|-------------------------2-------2----------------|
|-0-------0---4-------4---------------4-------4----|

 |      |      |      |
|--------------------------------------------------|
|-------------------------2-------2----------------|
|-0-------0---4-------4---------------4-------4----|
|--------------------------------------------------|

 |      |      |      |
|--------------------------------------------------|
|-------------------------2-------2----------------|
|-0-------0---4-------4---------------4-------4----|
|--------------------------------------------------|

 |      |      |      |
|--------------------------------------------------|
|--------------------------------------------------|
|-------------------------2-------2----------------|
|-0-------0---4-------4---------------4-------4----|

 |      |      |      |
|--------------------------------------------------|
|--------------------------------------------------|
|-------------------------2-------2----------------|
|-0-------0---4-------4---------------4-------4----|

 |      |      |      |
|--------------------------------------------------|
|-------------1-------1---4-------4---1-------1----|
|-2-------2----------------------------------------|
|--------------------------------------------------|

 |      |      |      |
|--------------------------------------------------|
|-------------------------2-------2----------------|
|-0-------0---4-------4---------------4-------4----|
|--------------------------------------------------|

 |      |      |      |
|--------------------------------------------------|
|--------------------------------------------------|
|-------------------------2-------2----------------|
|-0-------0---4-------4---------------4-------4----|

 |      |      |      |
|--------------------------------------------------|
|---------4---3-------2----------------------------|
|--------------------------------------------------|
|-0------------------------------------------------|



m/

Find guitar tabs and chords

A B C D E F G H I J K L M N O P Q R S T U V W X Y Z #