Hokkaido Skies by The Ventures

Hokkaido Skies tab by The Ventures

Guitar tabs

--------------------------------------------------------------

          THE VENTURES - HOKKAIDO SKIES
     Bob Bogle, Don Wilson, Mel Taylor & Nokie Edwards
       From POPS IN JAPAN album. Released on 1967

   --------------------------------------------------------------





    I've tabbed the keyboard part an octave lower, so that
    anyone can play it without any troubles.





  INTRO


   Gm
 e|-----------------5---------------|-----------------3---------------|
 B|---------6-----------6-----------|---------3-----------3-----------|
 G|-----7-------7-----------7-------|-----3-------3-----------3-------|
 D|-7---------------------------7---|-5---------------------------5---|
 A|---------------------------------|---------------------------------|
 E|---------------------------------|---------------------------------|




   Gm
 e|-----------------5---------------|-----------------3---------------|
 B|---------6-----------6-----------|---------3-----------3-----------|
 G|-----7-------7-----------7-------|-----3-------3-----------3-------|
 D|-7---------------------------7---|-5---------------------------5---|
 A|---------------------------------|---------------------------------|
 E|---------------------------------|---------------------------------|

 e|---------------------------------|---------------------------------|
 B|---------------------------------|---------------------------------|
 G|---------------------------------|---------------------------------|
 D|---------------------------------|-------------------------2-----/-|
 A|---------------------------------|---------------------------------|
 E|---------------------------------|---------------------------------|





  VERSE


   Dm
 e|---------------------------------|---------------------------------|
 B|-----------------------------5---|-6-8-6---------------6-\-5---3---|
 G|---------------------7-----------|---------------------------------|
 D|-7-----------7-------------------|---------------------------------|
 A|---------------------------------|---------------------------------|
 E|---------------------------------|---------------------------------|




   Dm
 e|---------------------------------|---------------------------------|
 B|---------------------------------|---------------------------------|
 G|-7\3---3-------------3-/-7---7---|-5\2---2--------------------2H3P2|
 D|---------------------------------|---------------------------------|
 A|---------------------------------|---------------------------------|
 E|---------------------------------|---------------------------------|




   Dm
 e|---------------------------------|---------------------------------|
 B|---------------------------------|---------------------------------|
 G|-0-------------------0-------2-0-|---------------------------------|
 D|---------------------------------|-3--------------------------3H5P3|
 A|---------------------------------|---------------------------------|
 E|---------------------------------|---------------------------------|




   A
 e|---------------------------------|---------------------------------|
 B|---------------------------------|---------------------------------|
 G|---------------------------------|---------------------------------|
 D|-2-------------------------------|---------------------------------|
 A|-----------------7---7-------7-5-|-4---------------7---4-------7---|
 E|---------------------------------|---------------------------------|





 e|---------------------------------|
 B|-----------------5-------5-/-10--|
 G|-------------4/6-----7-----------|
 D|-7-------------------------------|
 A|---------------------------------|
 E|---------------------------------|





  VERSE


   Dm
 e|-----------------10--12----------|-131513-------------15\1312--10--|
 B|-10------------------------------|---------------------------------|
 G|---------------------------------|---------------------------------|
 D|---------------------------------|---------------------------------|
 A|---------------------------------|---------------------------------|
 E|---------------------------------|---------------------------------|




   Dm
 e|---------------------------------|---------------------------------|
 B|-11------------------11/15---15--|-15\10--10-----------------101110|
 G|---------------------------------|---------------------------------|
 D|---------------------------------|---------------------------------|
 A|---------------------------------|---------------------------------|
 E|---------------------------------|---------------------------------|




   Dm
 e|---------------------------------|---------------------------------|
 B|---------------------------------|---------------------------------|
 G|-12------------------12-----1412-|-10------------------------101210|
 D|---------------------------------|---------------------------------|
 A|---------------------------------|---------------------------------|
 E|---------------------------------|---------------------------------|




   Dm
 e|---------------------------------|----------------------------10-12|
 B|-----------------10----------6---|---------------------6-8-10------|
 G|-9-------------------9-----------|-7---------------7-9-------------|
 D|---------------------------------|---------------------------------|
 A|---------------------------------|---------------------------------|
 E|---------------------------------|---------------------------------|





 e|-13------------------------------|
 B|-----------------15--------------|
 G|---------------------------------|
 D|---------------------------------|
 A|---------------------------------|
 E|---------------------------------|





  BRIDGE


   C
 e|-----------------------------8---|-----------------8-------6-------|
 B|---------------------5-----------|---------------------------------|
 G|-5---------------5---------------|---------------------------------|
 D|-5-------------------------------|---------------------------------|
 A|---------------------------------|---------------------------------|
 E|---------------------------------|---------------------------------|




   F
 e|-5-------5-----------------------|---------------------------------|
 B|---------------------------------|---------------------------------|
 G|---------------------------------|---------------------------------|
 D|---------------------------------|---------------------------------|
 A|---------------------------------|---------------------------------|
 E|---------------------------------|---------------------------------|

 e|---------------------------------|---------------------------------|
 B|---------------------------------|-6-------5---3---5-P-3-----------|
 G|-------------------------7H9P7---|---------------------------------|
 D|---------3---5---7---------------|---------------------------------|
 A|---------------------------------|---------------------------------|
 E|---------------------------------|---------------------------------|




   A
 e|---------------------0-------5---|-----------------5-------3-------|
 B|-----------------2---------------|---------------------------------|
 G|-2-------------------------------|---------------------------------|
 D|-2-------------------------------|---------------------------------|
 A|---------------------------------|---------------------------------|
 E|---------------------------------|---------------------------------|




   Dm
 e|---------------------------------|---------------------------------|
 B|-6-------------------------------|---------------------------------|
 G|---------------------------------|---------------------------------|
 D|---------------------------------|---------------------------------|
 A|---------------------------------|---------------------------------|
 E|---------------------------------|---------------------------------|

 e|---------------------------------|---------------------------------|
 B|---------------------------------|---------------------------------|
 G|---------------------------------|---------------------------------|
 D|-------------2---3---5---3H5P3---|-3---2---0---2---0---------------|
 A|---------5-----------------------|---------------------------------|
 E|---------------------------------|---------------------------------|




   Bb
 e|---------------------------------|---------------------------------|
 B|---------------------------------|---------------------------------|
 G|---------------------------------|---------------------------------|
 D|-3-----------------------2---3---|-5-----------3---2-------0-------|
 A|---------------------------------|---------------------------------|
 E|---------------------------------|---------------------------------|




   F
 e|---------------------------------|---------------------------------|
 B|---------------------------------|---------------------------------|
 G|---------------------------------|---------------------------------|
 D|-0-------------------------------|---------------------------------|
 A|-----3---------------------------|---------------------------------|
 E|---------------------------------|---------------------------------|

 e|---------------------------------|---------------------------------|
 B|---------1-----------------------|---1-----------------------------|
 G|---------------------2--------0--|-2---2---------0---0-2-----------|
 D|----------------------------3----|-----------------3---------------|
 A|---------------------------------|---------------------------------|
 E|---------------------------------|---------------------------------|




   A
 e|---------------------------------|-----------------5---7-------9---|
 B|-----------------------------2---|---------------------------------|
 G|-2---------------2---4-----------|---------------------------------|
 D|-2-------------------------------|---------------------------------|
 A|---------------------------------|---------------------------------|
 E|---------------------------------|---------------------------------|





 e|-----------------9---10------12--|---------------------------------|
 B|---------------------------------|---------------------------------|
 G|---------------------------------|---------------------------------|
 D|---------------------------------|---------------------------------|
 A|---------------------------------|---------------------------------|
 E|---------------------------------|---------------------------------|

 e|---------------------------------|---------------------------------|
 B|---------------------------------|---------------------------------|
 G|---------------------------------|---------------------------------|
 D|---------------------------------|-------------------------2-----/-|
 A|---------------------------------|---------------------------------|
 E|---------------------------------|---------------------------------|





  VERSE


   Dm
 e|---------------------------------|---------------------------------|
 B|-------------------------5-------|-6-8-6---------------6-\-5---3---|
 G|---------------------7-----------|---------------------------------|
 D|-7---------------7---------------|---------------------------------|
 A|---------------------------------|---------------------------------|
 E|---------------------------------|---------------------------------|




   Dm
 e|---------------------------------|---------------------------------|
 B|---------------------------------|---------------------------------|
 G|-7\3---3-------------3-/-7---7---|-5\2---2--------------------2H3P2|
 D|---------------------------------|---------------------------------|
 A|---------------------------------|---------------------------------|
 E|---------------------------------|---------------------------------|




   Dm
 e|---------------------------------|---------------------------------|
 B|---------------------------------|---------------------------------|
 G|-0---------------0---2-----------|---------------------------------|
 D|---------------------------------|-3--------------------------3H5P3|
 A|---------------------------------|---------------------------------|
 E|---------------------------------|---------------------------------|




   Dm
 e|---------------------------------|---------------------------------|
 B|---------------------------------|---------------------------------|
 G|-------------3---2---------------|---------------------------------|
 D|-2-------------------2-------3---|-0---------------------------0--/|
 A|---------------------------------|---------------------------------|
 E|---------------------------------|---------------------------------|




   Dm
 e|---------------------------------|---------------------------------|
 B|-----------------3---------------|-----------------------------3---|
 G|-----0---2---3---------------3---|-2-----------3---2---------------|
 D|-2-------------------------------|---------------------------------|
 A|---------------------------------|---------------------------------|
 E|---------------------------------|---------------------------------|




   Dm
 e|---------------------------------|---------------------------------|
 B|-----6---5---3---5---------------|---------------------------------|
 G|-----------------------------3---|-2-------------------------------|
 D|---------------------------------|-----------3-2-0-3-----------0---|
 A|---------------------------------|---------------------------------|
 E|---------------------------------|---------------------------------|




   Dm
 e|---------------------------------|---------------------------------|
 B|-------------3---5H6---5----5H6P5|---------------------------------|
 G|-0---2---3-----------------------|-3-------2-------0-------------0-|
 D|---------------------------------|---------------------3---2\0-----|
 A|---------------------------------|---------------------------------|

Find guitar tabs and chords

A B C D E F G H I J K L M N O P Q R S T U V W X Y Z #