Hawaii Five-0 by The Ventures

Hawaii Five-0 tab by The Ventures

Guitar tabs

HAWAII FIVE-0

As recorded by The Ventures
(From the 1969 Album HAWAII FIVE-0)

Music by Mort Stevens
Arranged by The Ventures

Transcribed by Slowhand


Gtr I (E A D G B E) - 'Jerry McGee - Electric Guitar'
Gtr II (E A D G B E) - 'Horns'


 Q=163
 N.C.     N.C.
 4/4
 Gtr I (Clean El. Gtr.)
 Wx4      Q E E E Q   E  +Q.   E +H
|------------||--------------------|--------------------|
|------------||-----------3--------|--------------------|
|------------||--------3---------5-|-(5)----------------|
|------------||----5-5-------------|---------5-(5)------|
|------------||--------------------|--------------------|
|------------||--------------------|--------------------|
|
| Gtr II (Horns arr. for Gtr.)
| Wx4      Q E E E E +E E  E E E E E E Q
|------------||--------6-10-(10)-8-|--------------------|
|------------||----8-8-------------|---------8----------|
|------------||--------------------|--------------------|
|------------||--------------------|--------------------|
|------------||--------------------|--------------------|
|------------||--------------------|--8------8--8-------|


 +Q  E E E Q   E  +W
|---------------------|------------------|
|---------------------|------------------|
|-------------3-------|------------------|
|-(5)---5-5-3-------5-|-(5)--------------|
|---------------------|------------------|
|---------------------|------------------|
|
| E E E E E E +E E  E E E E E E Q
|-------------6-(6)---|------------------|
|-------8-8-6-------8-|------------------|
|---------------------|------------------|
|---------------------|------------------|
|---------------------|------------------|
|--6------6-6---------|--8------8-8------|


 Q  E E E Q   E  +Q.   E +H
|-----------------------|----------3-(3)-------|
|--------------3------1-|-(1)------------------|
|-----------3-----------|----------------------|
|-----5--5--------------|----------------------|
|-----------------------|----------------------|
|-----------------------|----------------------|
|
| E E E E E E +E E  E E E E E E Q
|-------------10-(10)-8-|---------15-----------|
|-----8--8-11-----------|----------------------|
|-----------------------|----------------------|
|-----------------------|----------------------|
|-6---------------------|----------------------|
|-------11-11-----------|--8----------8--------|


 +E E E E E E  E  E  +W
|-(3)--------------------3-|-(3)----------------|
|--------6-6--3------------|--------------------|
|----------------3---------|--------------------|
|--------------------------|--------------------|
|--------------------------|--------------------|
|--------------------------|--------------------|
|
| E E E E E E +E  E  E E E E E E Q
|-------13---10---------15-|--------------------|
|---------------11-(11)----|--------------------|
|--------------------------|--------------------|
|--------------------------|--------------------|
|--------------------------|--------------------|
|--6-------6--6------------|-11------11-11------|


 +W          Q  Q  E E E E
|-(3)----------------|------6---3-----------|
|--------------------|-------------6--4-----|
|--------------------|-------------------5--|
|--------------------|----------------------|
|--------------------|----------------------|
|--------------------|----------------------|
|
| E E E E E E Q  E E E E E E E E
|--------------------|-----18-----13-11-----|
|--------------------|------------------13--|
|--------------------|----------------------|
|--------------------|----------------------|
|-10------10-10------|----------------------|
|--------------------|-8------8-8-----------|


 E E E E +H     Q  Q   E E E E
|-------------------|-------8-----5--3-------|
|-------------------|-------------------6--3-|
|-------------------|------------------------|
|-5-3---------------|------------------------|
|-----6--3-(3)------|------------------------|
|-------------------|------------------------|
|
| E E E E E E Q   E E E E E E E E
|-------------------|------20----17-15-13----|
|-8-6---------------|---------------------15-|
|-----8-------------|------------------------|
|-------10----------|------------------------|
|-------------------|------------------------|
|-8------8--8-------|-13------13-13----------|


 E E E E +E E Q  Q.   E +H
|-------------------|--------3-(3)-------|
|----------------3--|--------------------|
|-5-3---3-(3)-5-----|-5------------------|
|-----6-------------|--------------------|
|-------------------|--------------------|
|-------------------|--------------------|
|
| E E E E E E Q  Q  E E E E Q
|-8-6---6-----8-10--|-8-----15-----------|
|-----9-------------|--------------------|
|-------------------|--------------------|
|-------------------|--------------------|
|-------------------|--------------------|
|-4--------6--------|-8---------8--------|


                              N.C.
 Q  E E E Q   E  +H    +E E E E  +W      Q E E E Q E
|---------------------|---------------------|------------||---------------|
|------6-6--3---------|---------------------|------------||----------4----|
|-------------3-----5-|-(5)-------(5)-5-5---|------------||--------4----6-|
|---------------------|-------------------6-|-(6)--------||----6-6--------|
|---------------------|---------------------|------------||---------------|
|---------------------|---------------------|------------||---------------|
|
| E E E E E E +E E  E E E E E E E E  W      W
|-----13---10-6-(6)-8-|---------------8-8---|------------||---------------|
|---------------------|-------------------9-|------------||---------------|
|---------------------|---------------------|------------||---------------|
|---------------------|---------------------|------------||---------------|
|---------------------|---------------------|-11---------||---------------|
|-4------4--6---------|--8------8--8--------|------------||---------------|


 +Q.  E +H    Q E E E Q E  +W      Q E E E E +E E
|----------------|---------------|------------|-------------------|
|----------------|---------------|------------|----------4-(4)----|
|-(6)------------|----------4----|------------|--------4-------6--|
|-------6-(6)----|----6-6-4----6-|-(6)--------|----6-6------------|
|----------------|---------------|------------|-------------------|
|----------------|---------------|------------|-------------------|


 +Q.  E +H    Q E E E Q E  +W      +W
|-------4-(4)----|-------------4-|-(4)--------|-(4)----|
|----------------|----7-7-4------|------------|--------|
|-(6)------------|----------4----|------------|--------|
|----------------|---------------|------------|--------|
|----------------|---------------|------------|--------|
|----------------|---------------|------------|--------|


 Q E E E E E E  E E E E +H    Q E E E E E E  E E E E E E Q
|----7-5-4-------|----------------|----9-7-5-------|-----------------|
|----------7-5-4-|---4------------|----------8-5---|-------4---------|
|----------------|-6---4-6-(6)----|--------------7-|-6-4-6-----6-4---|
|----------------|----------------|----------------|-----------------|
|----------------|----------------|----------------|-----------------|
|----------------|----------------|----------------|-----------------|


 Q.  E +H    Q E E E E +E E  +H.   E E  +W
|------4-(4)----|------------------|--------------|--------||
|---------------|----7-7-4---------|--------------|--------||
|-6-------------|----------4-(4)-6-|-(6)----------|--------||
|---------------|------------------|------------7-|-(7)----||
|---------------|------------------|--------------|--------||
|---------------|------------------|--------------|--------||


             Dm/F   C/E            Dm/F
 Q E E E Q E  +Q.  E +H    Q E E E E +E E  +W
|---------------|----------------|------------------|--------------|
|----------5----|----------------|------------------|--------------|
|--------5----7-|-(7)------------|----------5-(5)---|--------------|
|----7-7--------|-------7-(7)----|----7-7-5-------7-|-(7)----------|
|---------------|----------------|------------------|--------------|
|---------------|----------------|------------------|--------------|
|
| Gtr II
| W        H    H    W          H   H
|---------------|---------10-----|-8----------------|--------10----|
|---------------|---------10-----|-8----------------|--------10----|
|---------------|---------10-----|-9----------------|--------10----|
|---------------|----------------|------------------|--------------|
|---------------|----------------|------------------|--------------|
|---------------|----------------|------------------|--------------|


 F/A           Dm/F   C/E          F/A
  Q E E E Q E  +Q.  E +H    Q E E E Q E  +W
|----------------|-------5-(5)----|-------------5-|-(5)----------|
|-----------5----|----------------|----8-8-5------|--------------|
|---------5----7-|-(7)------------|----------5----|--------------|
|-----7-7--------|----------------|---------------|--------------|
|----------------|----------------|---------------|--------------|
|----------------|----------------|---------------|--------------|
|
| W        H    H    W        H   H
|-13-------------|---------10-----|-8-------------|--------13----|
|-13-------------|---------10-----|-8-------------|--------13----|
|-14-------------|---------10-----|-9-------------|--------14----|
|----------------|----------------|---------------|--------------|
|----------------|----------------|---------------|--------------|
|----------------|----------------|---------------|--------------|


 A/E       Dm
 +W      Q  Q  +E  E  E E
|-(5)--------|-----------------------|
|------------|----10---(10)--8---6-5-|
|------------|-----------------------|
|------------|-----------------------|
|------------|-----------------------|
|------------|-----------------------|
|
| W      Q  E E  E  S S Q
|------------|----10--------10-------|
|-14---------|----10--------10-------|
|-14---------|----10--------10-------|
|-14---------|----12--------12-------|
|------------|-----------------------|
|------------|-----------------------|


              Bb/D
  E E E E +H     Q  Q  +E  E E E
|---------------------|----10---(10)--8-6---|
|----5----------------|-------------------9-|
|--7------7-(7)-------|---------------------|
|------7--------------|---------------------|
|---------------------|---------------------|
|---------------------|---------------------|
|
| E E E E Q  E E  Q  E E  E  E Q
|-10-----10------10---|----10--------10-----|
|-10-----10------10---|----11--------11-----|
|-10-----10------10---|----10--------10-----|
|-12-----12-----------|----12--------12-----|
|---------------------|---------------------|
|---------------------|---------------------|


         C/G    F/D       C/G
  E E E E +E E Q   Q.   E +H      Q  E E E Q E  +W
|----------------------|--------5-(5)-------|-----------------|--------|
|--8-6-----------------|--------------------|------8-8-5------|--------|
|------7--9-(9)-7--5---|-7------------------|------------5--7-|-(7)----|
|----------------------|--------------------|-----------------|--------|
|----------------------|--------------------|-----------------|--------|
|----------------------|--------------------|-----------------|--------|
|
| E E E E Q   E E  Q  e E E  e Q   E E Q  H     W
|-10-----10-------12---|--------------------|-12--------------|--------|
|-11-----11-------13---|-----10-------10----|-13--------------|--------|
|-10-----10-------12---|-----10-------10----|-12--------------|--------|
|-12-----12------------|-----12-------12----|-----------------|--------|
|----------------------|--------------------|-----------------|--------|
|----------------------|--------------------|-----------------|--------|


               Cm11/Bb       N.C.
                      Gtr II
 Q E E E E E E  +H.   Q  +H.    Q   Q  Q  Q  Q
|------------8-10-|-(10)------8--|-(8)----------||-----13--18--20--|
|----8-8-5-8------|-----------8--|-(8)----------||-15--------------|
|-----------------|-----------8--|-(8)------17--||-----------------|
|-----------------|-----------8--|-(8)----------||-----------------|
|-----------------|-----------8--|-(8)----------||-----------------|
|-----------------|-----------6--|-(6)----------||-----------------|


              Dm
 Gtr I
  W      W     W     Q E E E Q E
|-------------|----------|-5--------|---------------|
|-------------|----------|-6--------|---------------|
|-------------|----------|-7--------|----------2----|
|-------------|----------|-7--------|----0-0-3------|
|-------------|----------|-5--------|---------------|
|-------------|----------|----------|---------------|
|
| Gtr II
| Q Q H   W     W     W
|-22----------|----------|----------|---------------|
|-------------|----------|----------|---------------|
|-------------|----------|----------|---------------|
|-------------|----------|----------|---------------|
|-------------|----------|----------|---------------|
|-------------|----------|----------|---------------|


 Q Q E E +E E  +Q  E E E Q E
|---------0-(0)---|------------5--3-|
|-------1-------3-|-(3)--3-3-6------|
|----2------------|-----------------|
|-----------------|-----------------|
|-----------------|-----------------|
|-----------------|-----------------|
|
| W         +W
|-----------------|-----------------|
|-----------------|-----------------|
|-----------------|-----------------|
|-7---------------|-(7)-------------|
|-----------------|-----------------|
|-----------------|-----------------|


 +Q  E E E E +E E  +Q  E E E E +E  E
|-(3)-------------------|------------------------|
|--------------3--(3)-1-|-(1)----------8--(8)--6-|
|------0-0--3-----------|------5-5--8------------|
|-----------------------|------------------------|
|-----------------------|------------------------|
|-----------------------|------------------------|
|
| +Q  E E E E +E E  +Q  E E E E +E  E
|-------------10-(10)-8-|-(8)--8-8-11-15-(15)-20-|
|------8-8-11-----------|------------------------|
|-----------------------|------------------------|
|-(7)-------------------|------------------------|
|-----------------------|------------------------|
|-----------------------|------------------------|


               Bb   C     D       N.C.
  +Q  E E E E +E E  +Q  E E Q  E E  Q  Q  +H    E E Q H
|-------------8-(8)-6-|-(6)---6-------8---|----10--(10)----|-------------*|
|--(6)--6-8-9---------|-------------------|----------------|-------------*|
|---------------------|-------------------|----------------|-------------*|
|---------------------|-------------------|----------------|-------------*|
|---------------------|-------------------|----------------|-5-5-5-------*|
|---------------------|-------------------|----------------|-------------*|
|
| +W          Q  E E Q  E E  Q  Q  +H    E E q H
|-(20)----------------|------13------15---|----17--(17)----|-------------*|
|---------------------|------15------17---|----19--(19)----|-------------*|
|---------------------|------15------17---|----19--(19)----|-------------*|
|---------------------|-------------------|----------------|-------------*|
|---------------------|------13------15---|----17--(17)----|-5-5-5-------*|
|---------------------|-------------------|----------------|-------------*|


Duration 🏷Legend
---------------
W - whole; H - half; Q - quarter; E - 8th; S - 16th; T - 32nd; X - 64th; a - acciaccatura
+ - note tied to previous; . - note dotted; .. - note double dotted
Uncapitalized letters represent notes that are staccato (1/2 duration)
Irregular groupings are notated above the duration line
Duration letters will always appear directly above the note/fret number it represents the
duration for. Duration letters with no fret number below them represent rests. Multi-
bar rests are notated in the form Wxn, where n is the number of bars to rest for. Low
melody durations appear below the staff

Tablature 🏷Legend
----------------
 h  - hammer-on
 p  - pull-off
 b  - bend
 pb - pre-bend
 r  - bend release (if no number after the r, then release immediately)
 /\ - slide into or out of (from/to "nowhere")
 s  - legato slide
 S  - shift slide
 - natural harmonic
[n] - artificial harmonic
n(n) - tapped harmonic
 ~  - vibrato
 tr - trill
 T  - tap
 TP - trem. picking
 PM - palm muting
\n/ - tremolo bar dip; n = amount to dip
 \n - tremolo bar down
 n/ - tremolo bar up
/n\ - tremolo bar inverted dip
 =  - hold bend; also acts as connecting device for hammers/pulls
 <> - volume swell (louder/softer)
 x  - on rhythm slash represents muted slash
 o  - on rhythm slash represents single note slash

Misc 🏷Legend
-----------
 | - bar
|| - double bar
||o - repeat start
o|| - repeat end
*| - double bar (ending)
 : - bar (freetime)
 $ - Segno
 & - Coda

Find guitar tabs and chords

A B C D E F G H I J K L M N O P Q R S T U V W X Y Z #