Fever by The Ventures

Fever bass tab by The Ventures

Bass tabs

Ventures_Fever

Basstab by Jan Bjorklund, Finland

You are welcome to request for basstabs!
Fingering and positions as suggested by TablEdit,
please use common sense!

TablEdited by Jan Bjorklund
Tuning : E A D G 	Time Signature: 4/4

 |    |    |    |     |    |    |
   |
|----------------------------------|----------------------------------|
|----------------------------------|----------------------------------|
|-------------------------1--------|-----------------1-----------1----|
|----------------------------------|-3-----------3--------------------|

 |    |    |    |     |    |    |
   |
|----------------------------------|----------------------------------|
|----------------------------------|-0--------------------------------|
|-----------------1-----------1----|----------------------------------|
|-3-----------3-----------3--------|-----------------2----------------|

 |    |    |    |     |    |    |
   |
|----------------------------------|----------------------------------|
|----------------------------------|----------------------------------|
|----------------------------------|-----------------1-----------1----|
|-3--------------------------------|-3-----------3--------------------|

 |    |    |    |     |    |    |
   |
|----------------------------------|----------------------------------|
|----------------------------------|----------------------------------|
|-----------------1-------3---1----|-----------------1-----------1----|
|-3-----------3--------------------|-3-----------3--------------------|

 |    |    |    |     |    |    |
   |
|----------------------------------|----------------------------------|
|----------------------------------|----------------------------------|
|-----------------3---1------------|-----------------1-----------1----|
|-3-----------3-----------3---1----|-3-----------3--------------------|

 |    |    |    |     |    |    |
   |
|----------------------------------|----------------------------------|
|----------------------------------|-0--------------------------------|
|-3-----------3---1-------3--------|----------------------------------|
|----------------------------------|----------------------------------|

 |    |    |    |     |    |    |
   |
|----------------------------------|----------------------------------|
|-----0---0---0---0---0------------|----------------------------------|
|-------------------------3---1----|-----------------3-----------3----|
|----------------------------------|-3-----------3--------------------|

 |    |    |    |     |    |    |
   |
|----------------------------------|----------------------------------|
|-0-----------0--------------------|----------------------------------|
|-----------------3-------1--------|-----------------3-----------3----|
|----------------------------------|-3-----------3--------------------|

 |    |    |    |     |    |    |
   |
|----------------------------------|----------------------------------|
|-0-----------0--------------------|----------------------------------|
|-----------------3-------1--------|-----------------3-----------3----|
|----------------------------------|-3-----------3--------------------|

 |    |    |    |     |    |    |
   |
|----------------------------------|----------------------------------|
|-0-----------0--------------------|----------------------------------|
|-----------------3-------1--------|-----------------3-----------3----|
|----------------------------------|-3-----------3--------------------|

 |    |    |    |     |    |    |
   |
|----------------------------------|----------------------------------|
|-0--------------------------------|----------------------------------|
|----------------------------------|-----------------1-----------1----|
|---------1---------------2--------|-3-----------3--------------------|

 |    |    |    |     |    |    |
   |
|----------------------------------|----------------------------------|
|----------------------------------|----------------------------------|
|-----------------1-------3---1----|-----------------1-----------1----|
|-3-----------3--------------------|-3-----------3--------------------|

 |    |    |    |     |    |    |
   |
|----------------------------------|----------------------------------|
|----------------------------------|----------------------------------|
|-----------------3---1------------|-----------------1-----------1----|
|-3-----------3-----------3---1----|-3-----------3--------------------|

 |    |    |    |     |    |    |
   |
|----------------------------------|----------------------------------|
|----------------------------------|-0--------------------------------|
|-3-----------3---1-------3--------|----------------------------------|
|----------------------------------|----------------------------------|

 |    |    |    |     |    |    |
   |
|----------------------------------|----------------------------------|
|-----0---0---0---0---0------------|----------------------------------|
|-------------------------3---1----|-----------------3-----------3----|
|----------------------------------|-3-----------3--------------------|

 |    |    |    |     |    |    |
   |
|----------------------------------|----------------------------------|
|-0-----------0--------------------|----------------------------------|
|-----------------3-------1--------|-----------------3-----------3----|
|----------------------------------|-3-----------3--------------------|

 |    |    |    |     |    |    |
   |
|----------------------------------|----------------------------------|
|-0-----------0--------------------|----------------------------------|
|-----------------3-------1--------|-----------------3-----------3----|
|----------------------------------|-3-----------3--------------------|

 |    |    |    |     |    |    |
   |
|----------------------------------|----------------------------------|
|-0-----------0--------------------|----------------------------------|
|-----------------3-------1--------|-----------------3-----------3----|
|----------------------------------|-3-----------3--------------------|

 |    |    |    |     |    |    |
   |
|----------------------------------|----------------------------------|
|-0--------------------------------|----------------------------------|
|----------------------------------|-----------------3-----------3----|
|---------1---------------2--------|-3-----------3--------------------|

 |    |    |    |     |    |    |
   |
|----------------------------------|----------------------------------|
|-0-----------0--------------------|----------------------------------|
|-----------------3-------1--------|-----------------3-----------3----|
|----------------------------------|-3-----------3--------------------|

 |    |    |    |     |    |    |
   |
|----------------------------------|----------------------------------|
|-0-----------0--------------------|----------------------------------|
|-----------------3-------1--------|-----------------3-----------3----|
|----------------------------------|-3-----------3--------------------|

 |    |    |    |     |    |    |
   |
|----------------------------------|----------------------------------|
|-0-----------0--------------------|----------------------------------|
|-----------------3-------1--------|----------------------------------|
|----------------------------------|-3---3---3---3---3---3---3---3----|

 |    |    |    |     |    |    |
   |
|----------------------------------|----------------------------------|
|-0---0---0---0---0---0---0---0----|----------------------------------|
|----------------------------------|-----------------1-----------1----|
|----------------------------------|-3-----------3--------------------|

 |    |    |    |     |    |    |
   |
|----------------------------------|----------------------------------|
|----------------------------------|-0--------------------------------|
|-----------------1-----------1----|----------------------------------|
|-3-----------3-----------3--------|-----------------2----------------|

 |    |    |    |     |    |    |
   |
|----------------------------------|----------------------------------|
|----------------------------------|----------------------------------|
|----------------------------------|-----------------1-----------1----|
|-3--------------------------------|-3-----------3--------------------|

 |    |    |    |     |    |    |
   |
|----------------------------------|----------------------------------|
|----------------------------------|----------------------------------|
|-----------------1-------3---1----|-----------------1-----------1----|
|-3-----------3--------------------|-3-----------3--------------------|

 |    |    |    |     |    |    |
   |
|----------------------------------|----------------------------------|
|----------------------------------|----------------------------------|
|-----------------3---1------------|-----------------1-----------1----|
|-3-----------3-----------3---1----|-3-----------3--------------------|

 |    |    |    |     |    |    |
   |
|----------------------------------|----------------------------------|
|----------------------------------|-0--------------------------------|
|-3-----------3---1-------3--------|----------------------------------|
|----------------------------------|----------------------------------|

 |    |    |    |     |    |    |
   |
|----------------------------------|----------------------------------|
|-----0---0---0---0---0------------|----------------------------------|
|-------------------------3---1----|-----------------3-----------3----|
|----------------------------------|-3-----------3--------------------|

 |    |    |    |     |    |    |
   |
|----------------------------------|----------------------------------|
|-0-----------0--------------------|----------------------------------|
|-----------------3-------1--------|-----------------3-----------3----|
|----------------------------------|-3-----------3--------------------|

 |    |    |    |     |    |    |
   |
|----------------------------------|----------------------------------|
|-0-----------0--------------------|----------------------------------|
|-----------------3-------1--------|-----------------3-----------3----|
|----------------------------------|-3-----------3--------------------|

 |    |    |    |     |    |    |
   |
|----------------------------------|----------------------------------|
|-0-----------0--------------------|----------------------------------|
|-----------------3-------1--------|-----------------3-----------3----|
|----------------------------------|-3-----------3--------------------|

 |    |    |    |     |    |    |
   |
|----------------------------------|----------------------------------|
|-0---0---0---0---0---0------------|----------------------------------|
|-------------------------3---1----|-----------------3-----------3----|
|----------------------------------|-3-----------3--------------------|

 |    |    |    |     |    |    |
   |
|----------------------------------|----------------------------------|
|-0-----------0--------------------|----------------------------------|
|-----------------3-------1--------|-----------------3-----------3----|
|----------------------------------|-3-----------3--------------------|

 |    |    |    |     |    |    |
   |
|----------------------------------|----------------------------------|
|-0-----------0--------------------|----------------------------------|
|-----------------3-------1--------|-----------------3-----------3----|
|----------------------------------|-3-----------3--------------------|

 |    |    |    |     |    |    |
   |
|----------------------------------|----------------------------------|
|-0-----------0--------------------|----------------------------------|
|-----------------3-------1--------|-----------------3-----------3----|
|----------------------------------|-3-----------3--------------------|

 |    |    |    |     |    |    |
   |
|----------------------------------|----------------------------------|
|-0--------------------------------|----------------------------------|
|----------------------------------|----------------------------------|
|---------1---------------2--------|-3--------------------------------|




m/

Find guitar tabs and chords

A B C D E F G H I J K L M N O P Q R S T U V W X Y Z #