Escape by The Ventures

Escape bass tab by The Ventures

Bass tabs

Ventures_Escape

Basstab by Jan Bjorklund, Finland

You are welcome to request for basstabs!
Fingering and positions as suggested by TablEdit,
please use common sense!

TablEdited by Jan Bjorklund
Tuning : E A D G 	Time Signature: 4/4

 |    |    |    |     |    |    |
   |
|----------------------------------|----------------------------------|
|---------------------0------------|---------------------0------------|
|---------1-------3-------3---1----|---------1-------3-------3---1----|
|-3--------------------------------|-3--------------------------------|

 |    |    |    |     |    |    |
   |
|----------------------------------|----------------------------------|
|---------------------0------------|---------------------0------------|
|---------1-------3-------3---1----|---------1-------3-------3---1----|
|-3--------------------------------|-3--------------------------------|

 |    |    |    |     |    |    |
   |
|----------------------------------|----------------------------------|
|---------------------0------------|---------------------0------------|
|---------1-------3-------3---1----|---------1-------3-------3---1----|
|-3--------------------------------|-3--------------------------------|

 |    |    |    |     |    |    |
   |
|----------------------------------|----------------------------------|
|---------------------0------------|---------------------0------------|
|---------1-------3-------3---1----|---------1-------3-------3---1----|
|-3--------------------------------|-3--------------------------------|

 |    |    |    |     |    |    |
   |
|----------------------------------|----------------------------------|
|---------------------0------------|---------------------0------------|
|---------1-------3-------3---1----|---------1-------3-------3---1----|
|-3--------------------------------|-3--------------------------------|

 |    |    |    |     |    |    |
   |
|----------------------------------|----------------------------------|
|---------------------0------------|---------------------0------------|
|---------1-------3-------3---1----|---------1-------3-------3---1----|
|-3--------------------------------|-3--------------------------------|

 |    |    |    |     |    |    |
   |
|---------------------0------------|---------------------0------------|
|---------1-------3-------3---1----|---------1-------3-------3---1----|
|-3--------------------------------|-3--------------------------------|
|----------------------------------|----------------------------------|

 |    |    |    |     |    |    |
   |
|---------------------0------------|---------------------0------------|
|---------1-------3-------3---1----|---------1-------3-------3---1----|
|-3--------------------------------|-3--------------------------------|
|----------------------------------|----------------------------------|

 |    |    |    |     |    |    |
   |
|----------------------------------|----------------------------------|
|---------------------0------------|---------------------0------------|
|---------1-------3-------3---1----|---------1-------3-------3---1----|
|-3--------------------------------|-3--------------------------------|

 |    |    |    |     |    |    |
   |
|----------------------------------|----------------------------------|
|---------------------0------------|---------------------0------------|
|---------1-------3-------3---1----|---------1-------3-------3---1----|
|-3--------------------------------|-3--------------------------------|

 |    |    |    |     |    |    |
   |
|----------------------------------|----------------------------------|
|-0---0---0---0---0---0---0---0----|-1---1---1---1---1---1---1---1----|
|----------------------------------|----------------------------------|
|----------------------------------|----------------------------------|

 |    |    |    |     |    |    |
   |
|----------------------------------|----------------------------------|
|-3---3---3---3---3---3---3---3----|-3---3---3---3---3---3---3---3----|
|----------------------------------|----------------------------------|
|----------------------------------|----------------------------------|

 |    |    |    |     |    |    |
   |
|----------------------------------|----------------------------------|
|---------------------0------------|---------------------0------------|
|---------1-------3-------3---1----|---------1-------3-------3---1----|
|-3--------------------------------|-3--------------------------------|

 |    |    |    |     |    |    |
   |
|----------------------------------|----------------------------------|
|---------------------0------------|---------------------0------------|
|---------1-------3-------3---1----|---------1-------3-------3---1----|
|-3--------------------------------|-3--------------------------------|

 |    |    |    |     |    |    |
   |
|----------------------------------|----------------------------------|
|---------------------0------------|---------------------0------------|
|---------1-------3-------3---1----|---------1-------3-------3---1----|
|-3--------------------------------|-3--------------------------------|

 |    |    |    |     |    |    |
   |
|----------------------------------|----------------------------------|
|---------------------0------------|---------------------0------------|
|---------1-------3-------3---1----|---------1-------3-------3---1----|
|-3--------------------------------|-3--------------------------------|

 |    |    |    |     |    |    |
   |
|----------------------------------|----------------------------------|
|---------------------0------------|---------------------0------------|
|---------1-------3-------3---1----|---------1-------3-------3---1----|
|-3--------------------------------|-3--------------------------------|

 |    |    |    |     |    |    |
   |
|---------------------0------------|---------------------0------------|
|---------1-------3-------3---1----|---------1-------3-------3---1----|
|-3--------------------------------|-3--------------------------------|
|----------------------------------|----------------------------------|

 |    |    |    |     |    |    |
   |
|---------------------0------------|---------------------0------------|
|---------1-------3-------3---1----|---------1-------3-------3---1----|
|-3--------------------------------|-3--------------------------------|
|----------------------------------|----------------------------------|

 |    |    |    |     |    |    |
   |
|----------------------------------|----------------------------------|
|---------------------0------------|---------------------0------------|
|---------1-------3-------3---1----|---------1-------3-------3---1----|
|-3--------------------------------|-3--------------------------------|

 |    |    |    |     |    |    |
   |
|----------------------------------|----------------------------------|
|---------------------0------------|---------------------0------------|
|---------1-------3-------3---1----|---------1-------3-------3---1----|
|-3--------------------------------|-3--------------------------------|

 |    |    |    |     |    |    |
   |
|----------------------------------|----------------------------------|
|-0---0---0---0---0---0---0---0----|-1---1---1---1---1---1---1---1----|
|----------------------------------|----------------------------------|
|----------------------------------|----------------------------------|

 |    |    |    |     |    |    |
   |
|----------------------------------|----------------------------------|
|-3---3---3---3---3---3---3---3----|-3---3---3---3---3---3---3---3----|
|----------------------------------|----------------------------------|
|----------------------------------|----------------------------------|

 |    |    |    |     |    |    |
   |
|----------------------------------|----------------------------------|
|----------------------------------|----------------------------------|
|----------------------------------|----------------------------------|
|----------------------------------|----------------------------------|

 |    |    |    |     |    |    |
   |
|----------------------------------|----------------------------------|
|----------------------------------|----------------------------------|
|-3-------3---1---3---4---3---1----|-3-------3---1---3---4---3---1----|
|----------------------------------|----------------------------------|

 |    |    |    |     |    |    |
   |
|---------1-------3---4---3---1----|----------------------------------|
|-3--------------------------------|-3-------3---1---3---4---3---1----|
|----------------------------------|----------------------------------|
|----------------------------------|----------------------------------|

 |    |    |    |     |    |    |
   |
|----------------------------------|----------------------------------|
|-0-------0-------0---1---0--------|-0-------0-------0---1---0--------|
|-------------3---------------3----|-------------3---------------3----|
|----------------------------------|----------------------------------|

 |    |    |    |     |    |    |
   |
|----------------------------------|----------------------------------|
|----------------------------------|----------------------------------|
|-4---4---4---4---4---4---4---4----|-3---3---3---3---3---3---3---3----|
|----------------------------------|----------------------------------|

 |    |    |    |     |    |    |
   |
|-----------------3---5---3--------|-----------------3---5---3--------|
|-3-------6-------------------6----|-3-------6-------------------6----|
|----------------------------------|----------------------------------|
|----------------------------------|----------------------------------|

 |    |    |    |     |    |    |
   |
|-----------------3---5---3--------|-----------------3---5---3--------|
|-3-------6-------------------6----|-3-------6-------------------6----|
|----------------------------------|----------------------------------|
|----------------------------------|----------------------------------|

 |    |    |    |     |    |    |
   |
|----------------------------------|----------------------------------|
|-----------------1---3---1--------|-----------------1---3---1--------|
|-1-------4-------------------4----|-1-------4-------------------4----|
|----------------------------------|----------------------------------|

 |    |    |    |     |    |    |
   |
|----------------------------------|----------------------------------|
|-----------------1---3---1--------|-----------------1---3---1--------|
|-1-------4-------------------4----|-1-------4-------------------4----|
|----------------------------------|----------------------------------|

 |    |    |    |     |    |    |
   |
|-----------------3---5---3--------|-----------------3---5---3--------|
|-3-------6-------------------6----|-3-------6-------------------6----|
|----------------------------------|----------------------------------|
|----------------------------------|----------------------------------|

 |    |    |    |     |    |    |
   |
|-----------------3---5---3--------|-----------------3---5---3--------|
|-3-------6-------------------6----|-3-------6-------------------6----|
|----------------------------------|----------------------------------|
|----------------------------------|----------------------------------|

 |    |    |    |     |    |    |
   |
|----------------------------------|----------------------------------|
|----------------------------------|----------------------------------|
|-3---3---3---3---3---3---3---3----|-4---4---4---4---4---4---4---4----|
|----------------------------------|----------------------------------|

 |    |    |    |     |    |    |
   |
|----------------------------------|----------------------------------|
|-1---1---1---1---1---1---1---1----|-1---1---1---1---1---1---1---1----|
|----------------------------------|----------------------------------|
|----------------------------------|----------------------------------|

 |    |    |    |     |    |    |
   |
|-----------------3---5---3--------|-----------------3---5---3--------|
|-3-------6-------------------6----|-3-------6-------------------6----|
|----------------------------------|----------------------------------|
|----------------------------------|----------------------------------|

 |    |    |    |     |    |    |
   |
|-----------------3---5---3--------|-----------------3---5---3--------|
|-3-------6-------------------6----|-3-------6-------------------6----|
|----------------------------------|----------------------------------|
|----------------------------------|----------------------------------|

 |    |    |    |     |    |    |
   |
|-----------------3---5---3--------|-----------------3---5---3--------|
|-3-------6-------------------6----|-3-------6-------------------6----|
|----------------------------------|----------------------------------|
|----------------------------------|----------------------------------|

 |    |    |    |     |    |    |
   |
|-----------------3---5---3--------|-----------------3---5---3--------|
|-3-------6-------------------6----|-3-------6-------------------6----|
|----------------------------------|----------------------------------|
|----------------------------------|----------------------------------|

 |    |    |    |
|-----------------3---5---3--------|
|-3-------6-------------------6----|
|----------------------------------|
|----------------------------------|


m/

Find guitar tabs and chords

A B C D E F G H I J K L M N O P Q R S T U V W X Y Z #