El Condor Pasa by The Ventures

El Condor Pasa tab by The Ventures

Guitar tabs

EL CONDOR PASA


The Ventures


 INTRO



e|-11------------------------------|-----------------9---------------|
B|---------------------------------|---------------------------------|
G|---------------------------------|---------------------------------|
D|---------------------------------|---------------------------------|
A|---------------------------------|---------------------------------|
E|---------------------------------|---------------------------------|





e|---------------------------------|---------------------------------|
B|-11------------------------------|-9-----------------------9-------|
G|---------------------------------|-----------------11--------------|
D|---------------------------------|---------------------------------|
A|---------------------------------|---------------------------------|
E|---------------------------------|---------------------------------|





e|---------------------------------|---------------------------------|
B|-11------------------------------|---------------------------------|
G|---------------------------------|---------------------------------|
D|---------------------------------|---------------------------------|
A|---------------------------------|---------------------------------|
E|---------------------------------|---------------------------------|





e|-11------------------------------|-----------------9----11----9----|
B|---------------------------------|---------------------------------|
G|---------------------------------|---------------------------------|
D|---------------------------------|---------------------------------|
A|---------------------------------|---------------------------------|
E|---------------------------------|---------------------------------|





e|---------------------------------|---------------------------------|
B|-11------------------------------|---------9---------------9-------|
G|---------------------------------|-----------------11--------------|
D|---------------------------------|---------------------------------|
A|---------------------------------|---------------------------------|
E|---------------------------------|---------------------------------|





e|---------------------------------|---------------------------------|
B|-11------------------------------|---------------------------------|
G|---------------------------------|---------------------------------|
D|---------------------------------|---------------------------------|
A|---------------------------------|---------------------------------|
E|---------------------------------|---------------------------------|





e|-11------------------------------|-----------------14--------------|
B|---------------------------------|---------------------------------|
G|---------------------------------|---------------------------------|
D|---------------------------------|---------------------------------|
A|---------------------------------|---------------------------------|
E|---------------------------------|---------------------------------|





e|---------------------------------|-11------------------------------|
B|---------------------------------|---------------------------------|
G|---------------------------------|---------------------------------|
D|---------------------------------|---------------------------------|
A|---------------------------------|---------------------------------|
E|---------------------------------|---------------------------------|





e|-------11------------------------|---------------------------------|
B|----11---------------------------|---------------------------------|
G|-11------------------------------|---------------------------------|
D|---------------------------------|---------------------------------|
A|---------------------------------|---------------------------------|
E|---------------------------------|---------------------------------|





e|-------11------------------------|---------------------------------|
B|----11---------------------------|---------------------------------|
G|-11------------------------------|---------------------------------|
D|---------------------------------|---------------------------------|
A|---------------------------------|---------------------------------|
E|---------------------------------|---------------------------------|





e|---------------------------------|---------------------------------|
B|---------------------------------|---------------------------------|
G|---------------------------------|---------------------------------|
D|---------------------------------|-2---1---2---4---5---4---5---7---|
A|-----------------------------2---|---------------------------------|
E|---------------------------------|---------------------------------|





 VERSE


  G
e|---------------------------------|---------------------------------|
B|---------------------------------|---------------------------------|
G|-------------------------7---7---|---------------------7---9---7---|
D|7/9------------------------------|7H9------------------------------|
A|---------------------------------|---------------------------------|
E|---------------------------------|---------------------------------|




              B7    Em           B7
e|---------------------------------|---------------------------------|
B|---------------------------------|---------------------------------|
G|-9-7-----------------------------|---------------------------------|
D|-----9---------------9---7---5---|-7-5--------------------7/9------|
A|---------------------------------|-----7---------------------------|
E|---------------------------------|---------------------------------|




  Em
e|---------------------------------|---------------------------------|
B|---------------------------------|---------------------------------|
G|---------------------------------|---------------------------------|
D|-7-5-----------------------------|-2---1---2---4---5---4---5---7---|
A|-----7-----------------------2---|---------------------------------|
E|---------------------------------|---------------------------------|





 VERSE


  G
e|---------------------------------|---------------------------------|
B|---------------------------------|---------------------------------|
G|-------------------------7---7---|---------------------7---9---7---|
D|7/9------------------------------|7/9------------------------------|
A|---------------------------------|---------------------------------|
E|---------------------------------|---------------------------------|




              B7    Em           B7
e|---------------------------------|---------------------------------|
B|---------------------------------|---------------------------------|
G|-9-7-----------------------------|---------------------------------|
D|-----9---------------9---7---5---|-7-5--------------------7/9------|
A|---------------------------------|-----7---------------------------|
E|---------------------------------|---------------------------------|




  Em
e|---------------------------------|
B|---------------------------------|
G|-----------------------------8---|
D|-7-5-----------------------------|
A|-----7---------------------------|
E|---------------------------------|





 BRIDGE


  C
e|---------------------------------|---------------------------------|
B|---------------------------------|-------------------------7-------|
G|8/9----------8---9---8---9---8---|-9---------------------------9---|
D|---------------------------------|---------------------------------|
A|---------------------------------|---------------------------------|
E|---------------------------------|---------------------------------|




  G
e|---------------------------------|---------------------------------|
B|-------------------------5-------|---------------------------------|
G|-7-------------------7-------7---|-4---------------------------8---|
D|---------------------------------|---------------------------------|
A|---------------------------------|---------------------------------|
E|---------------------------------|---------------------------------|




  C
e|---------------------------------|---------------------------------|
B|---------------------------------|-------------------------7-------|
G|8/9----------8---9---8---9---8---|-9---------------------------9---|
D|---------------------------------|---------------------------------|
A|---------------------------------|---------------------------------|
E|---------------------------------|---------------------------------|




  G                             B7
e|---------------------------------|---------------------------------|
B|-------------------------5-------|---------------------------------|
G|-7-------------------7-------7---|-4-------------------4-----------|
D|---------------------------------|-------------------------7---5---|
A|---------------------------------|---------------------------------|
E|---------------------------------|---------------------------------|




  Em           B7    Em
e|---------------------------------|---------------------------------|
B|---------------------------------|---------------------------------|
G|---------------------------------|---------------------------------|
D|-7-5--------------------7H9------|-7-5-----------------------------|
A|-----7---------------------------|-----7-----------------------2---|
E|---------------------------------|---------------------------------|





e|---------------------------------|
B|---------------------------------|
G|---------------------------------|
D|-2---1---2---4---5---4---5---7---|
A|---------------------------------|
E|---------------------------------|





 VERSE


  G
e|---------------------------------|---------------------------------|
B|---------------------------------|---------------------------------|
G|-------------------------7---7---|---------------------7---9---7---|
D|7H9------------------------------|7H9------------------------------|
A|---------------------------------|---------------------------------|
E|---------------------------------|---------------------------------|




              B7    Em           B7
e|---------------------------------|---------------------------------|
B|---------------------------------|---------------------------------|
G|-9-7-----------------------------|---------------------------------|
D|-----9---------------9---7---5---|-7-5--------------------7/9------|
A|---------------------------------|-----7---------------------------|
E|---------------------------------|---------------------------------|




  Em
e|---------------------------------|---------------------------------|
B|---------------------------------|---------------------------------|
G|---------------------------------|---------------------------------|
D|-7-5-----------------------------|-2---1---2---4---5---4---5---7---|
A|-----7-----------------------2---|---------------------------------|
E|---------------------------------|---------------------------------|





 VERSE


  G
e|---------------------------------|---------------------------------|
B|---------------------------------|---------------------------------|
G|-------------------------7---7---|---------------------7---9---7---|
D|7/9------------------------------|7/9------------------------------|
A|---------------------------------|---------------------------------|
E|---------------------------------|---------------------------------|




              B7    Em           B7
e|---------------------------------|---------------------------------|
B|---------------------------------|---------------------------------|
G|-9-7-----------------------------|---------------------------------|
D|-----9---------------9---7---5---|-7-5--------------------7/9------|
A|---------------------------------|-----7---------------------------|
E|---------------------------------|---------------------------------|




  Em
e|---------------------------------|
B|---------------------------------|
G|-----------------------------8---|
D|-7-5-----------------------------|
A|-----7---------------------------|
E|---------------------------------|





 BRIDGE


  C
e|---------------------------------|---------------------------------|
B|---------------------------------|------------------------\7-------|
G|8/9----------8---9---8---9---8---|-9---------------------------9---|
D|---------------------------------|---------------------------------|
A|---------------------------------|---------------------------------|
E|---------------------------------|---------------------------------|




  G
e|---------------------------------|---------------------------------|
B|-------------------------5-------|---------------------------------|
G|-7-------------------7-------7---|-4---------------------------8---|
D|---------------------------------|---------------------------------|
A|---------------------------------|---------------------------------|
E|---------------------------------|---------------------------------|




  C
e|---------------------------------|---------------------------------|
B|---------------------------------|------------------------\7-------|
G|8/9----------8---9---8---9---8---|-9---------------------------9---|
D|---------------------------------|---------------------------------|
A|---------------------------------|---------------------------------|
E|---------------------------------|---------------------------------|




  G                             B7
e|---------------------------------|---------------------------------|
B|-------------------------5-------|---------------------------------|
G|-7-------------------7-------7---|-4-------------------4-----------|
D|---------------------------------|-------------------------7---5---|
A|---------------------------------|---------------------------------|
E|---------------------------------|---------------------------------|




  Em           B7    Em           B7
e|---------------------------------|---------------------------------|
B|---------------------------------|---------------------------------|
G|---------------------------------|---------------------------------|
D|-7-5--------------------7/9------|-7-5--------------------7/9------|
A|-----7---------------------------|-----7---------------------------|
E|---------------------------------|---------------------------------|




  Em       Slow
e|---------------------------------|----------3----------------------|
B|---------------------------------|---------5-----------------------|
G|---------------------------------|--------4------------------------|
D|-7-5-----------------------------|-------5-------------------------|
A|-----7-------------------2-0-----|---------------------------------|

Find guitar tabs and chords

A B C D E F G H I J K L M N O P Q R S T U V W X Y Z #