Counterpoint by The Ventures

Counterpoint bass tab by The Ventures

Bass tabs

Ventures_Counterpoint

Basstab by Jan Bjorklund, Finland

You are welcome to request for basstabs!
Fingering and positions as suggested by TablEdit,
please use common sense!

TablEdited by Jan Bjorklund
Tuning : E A D G 	Time Signature: 4/4

 |    |    |    |     |    |    |
   |
|----------------------------------|----------------------------------|
|-2-----------2---1-----------1----|-0-----------0--------------------|
|----------------------------------|-----------------4-----------4----|
|----------------------------------|----------------------------------|

 |    |    |    |     |    |    |
   |
|----------------------------------|----------------------------------|
|----------------------------------|----------------------------------|
|-3-----------3---2-----------2----|-1-----------1---0-------4--------|
|----------------------------------|----------------------------------|

 |    |    |    |     |    |    |
   |
|----------------------------------|----------------------------------|
|-2-----------2---1-----------1----|-0-----------0--------------------|
|----------------------------------|-----------------4-----------4----|
|----------------------------------|----------------------------------|

 |    |    |    |     |    |    |
   |
|----------------------------------|----------------------------------|
|----------------------------------|----------------------------------|
|-3-----------3---2-----------2----|-1-----------1---0-------4--------|
|----------------------------------|----------------------------------|

 |    |    |    |     |    |    |
   |
|----------------------------------|----------------------------------|
|-2-----------2---1-----------1----|-0-----------0--------------------|
|----------------------------------|-----------------4-----------4----|
|----------------------------------|----------------------------------|

 |    |    |    |     |    |    |
   |
|----------------------------------|----------------------------------|
|----------------------------------|----------------------------------|
|-3-----------3---2-----------2----|-1-----------1---0-------4--------|
|----------------------------------|----------------------------------|

 |    |    |    |     |    |    |
   |
|----------------------------------|----------------------------------|
|-2-----------2---1-----------1----|-0-----------0--------------------|
|----------------------------------|-----------------4-----------4----|
|----------------------------------|----------------------------------|

 |    |    |    |     |    |    |
   |
|----------------------------------|----------------------------------|
|----------------------------------|----------------------------------|
|-3-----------3---2-----------2----|-1-----------1---0-------4--------|
|----------------------------------|----------------------------------|

 |    |    |    |     |    |    |
   |
|----------------------------------|----------------------------------|
|-2-----------2---1-----------1----|-0-----------0--------------------|
|----------------------------------|-----------------4-----------4----|
|----------------------------------|----------------------------------|

 |    |    |    |     |    |    |
   |
|----------------------------------|----------------------------------|
|----------------------------------|----------------------------------|
|-3-----------3---2-----------2----|-2-------0------------------------|
|----------------------------------|-----------------3----------------|

 |    |    |    |     |    |    |
   |
|----------------------------------|----------------------------------|
|----------------------------------|----------------------------------|
|----------------------------------|----------------------------------|
|----------------------------------|----------------------------------|

 |    |    |    |     |    |    |
   |
|-----------------0---0---2---0----|-------------------------1--------|
|-------------2--------------------|-------------1---4---4-------4----|
|-3---3---3------------------------|-2---2---2------------------------|
|----------------------------------|----------------------------------|

 |    |    |    |     |    |    |
   |
|-----------------4---4---5---4----|-----------------4---4---5---4----|
|-2---2---2---5--------------------|-2---2---2---5--------------------|
|----------------------------------|----------------------------------|
|----------------------------------|----------------------------------|

 |    |    |    |     |    |    |
   |
|-----------------0---0---2---0----|-------------------------1--------|
|-------------2--------------------|-------------1---4---4-------4----|
|-3---3---3------------------------|-2---2---2------------------------|
|----------------------------------|----------------------------------|

 |    |    |    |     |    |    |
   |
|----------------------------------|----------------------------------|
|-2-------2-------2-------2--------|----------------------------------|
|----------------------------------|-2---2---2---2---2---2---2---2----|
|----------------------------------|----------------------------------|

 |    |    |    |     |    |    |
   |
|----------------------------------|----------------------------------|
|----------------------------------|----------------------------------|
|----------------------------------|-------------------------4--------|
|----------------------------------|----------------------------------|

 |    |    |    |     |    |    |
   |
|----------------------------------|----------------------------------|
|-2-----------2---1-----------1----|-0-----------0--------------------|
|----------------------------------|-----------------4-----------4----|
|----------------------------------|----------------------------------|

 |    |    |    |     |    |    |
   |
|----------------------------------|----------------------------------|
|----------------------------------|----------------------------------|
|-3-----------3---2-----------2----|-1-----------1---0-------4--------|
|----------------------------------|----------------------------------|

 |    |    |    |     |    |    |
   |
|----------------------------------|----------------------------------|
|-2-----------2---1-----------1----|-0-----------0--------------------|
|----------------------------------|-----------------4-----------4----|
|----------------------------------|----------------------------------|

 |    |    |    |     |    |    |
   |
|----------------------------------|----------------------------------|
|----------------------------------|----------------------------------|
|-3-----------3---2-----------2----|-1-----------1---0-------4--------|
|----------------------------------|----------------------------------|

 |    |    |    |     |    |    |
   |
|----------------------------------|----------------------------------|
|-2-----------2---1-----------1----|-0-----------0--------------------|
|----------------------------------|-----------------4-----------4----|
|----------------------------------|----------------------------------|

 |    |    |    |     |    |    |
   |
|----------------------------------|----------------------------------|
|----------------------------------|----------------------------------|
|-3-----------3---2-----------2----|-1-----------1---0-------4--------|
|----------------------------------|----------------------------------|

 |    |    |    |     |    |    |
   |
|----------------------------------|----------------------------------|
|-2-----------2---1-----------1----|-0-----------0--------------------|
|----------------------------------|-----------------4-----------4----|
|----------------------------------|----------------------------------|

 |    |    |    |     |    |    |
   |
|----------------------------------|----------------------------------|
|----------------------------------|----------------------------------|
|-3-----------3---2-----------2----|-2-------0------------------------|
|----------------------------------|-----------------3----------------|

 |    |    |    |     |    |    |
   |
|----------------------------------|----------------------------------|
|----------------------------------|----------------------------------|
|----------------------------------|----------------------------------|
|----------------------------------|----------------------------------|

 |    |    |    |     |    |    |
   |
|-----------------0---0---2---0----|-------------------------1--------|
|-------------2--------------------|-------------1---4---4-------4----|
|-3---3---3------------------------|-2---2---2------------------------|
|----------------------------------|----------------------------------|

 |    |    |    |     |    |    |
   |
|-----------------4---4---5---4----|-----------------4---4---5---4----|
|-2---2---2---5--------------------|-2---2---2---5--------------------|
|----------------------------------|----------------------------------|
|----------------------------------|----------------------------------|

 |    |    |    |     |    |    |
   |
|-----------------0---0---2---0----|-------------------------1--------|
|-------------2--------------------|-------------1---4---4-------4----|
|-3---3---3------------------------|-2---2---2------------------------|
|----------------------------------|----------------------------------|

 |    |    |    |     |    |    |
   |
|----------------------------------|----------------------------------|
|-2-------2-------2-------2--------|----------------------------------|
|----------------------------------|-2---2---2---2---2---2---2---2----|
|----------------------------------|----------------------------------|

 |    |    |    |     |    |    |
   |
|----------------------------------|----------------------------------|
|----------------------------------|----------------------------------|
|----------------------------------|-------------------------4--------|
|----------------------------------|----------------------------------|

 |    |    |    |     |    |    |
   |
|----------------------------------|----------------------------------|
|-2-----------2---1-----------1----|-0-----------0--------------------|
|----------------------------------|-----------------4-----------4----|
|----------------------------------|----------------------------------|

 |    |    |    |     |    |    |
   |
|----------------------------------|----------------------------------|
|----------------------------------|----------------------------------|
|-3-----------3---2-----------2----|-1-----------1---0-------4--------|
|----------------------------------|----------------------------------|

 |    |    |    |     |    |    |
   |
|----------------------------------|----------------------------------|
|-2-----------2---1-----------1----|-0-----------0--------------------|
|----------------------------------|-----------------4-----------4----|
|----------------------------------|----------------------------------|

 |    |    |    |     |    |    |
   |
|----------------------------------|----------------------------------|
|----------------------------------|----------------------------------|
|-3-----------3---2-----------2----|-1-----------1---0-------4--------|
|----------------------------------|----------------------------------|

 |    |    |    |     |    |    |
   |
|----------------------------------|----------------------------------|
|-2-----------2---1-----------1----|-0-----------0--------------------|
|----------------------------------|-----------------4-----------4----|
|----------------------------------|----------------------------------|

 |    |    |    |     |    |    |
   |
|----------------------------------|----------------------------------|
|----------------------------------|----------------------------------|
|-3-----------3---2-----------2----|-1-----------1---0-------4--------|
|----------------------------------|----------------------------------|

 |    |    |    |     |    |    |
   |
|----------------------------------|----------------------------------|
|-2-----------2---1-----------1----|-0-----------0--------------------|
|----------------------------------|-----------------4-----------4----|
|----------------------------------|----------------------------------|

 |    |    |    |     |    |    |
   |
|----------------------------------|----------------------------------|
|----------------------------------|----------------------------------|
|-3-----------3---2-----------2----|-2-------0------------------------|
|----------------------------------|-----------------3----------------|

 |    |    |    |     |    |    |
   |
|----------------------------------|----------------------------------|
|----------------------------------|----------------------------------|
|----------------------------------|----------------------------------|
|----------------------------------|----------------------------------|

 |    |    |    |     |    |    |
   |
|-----------------0---0---2---0----|-------------------------1--------|
|-------------2--------------------|-------------1---4---4-------4----|
|-3---3---3------------------------|-2---2---2------------------------|
|----------------------------------|----------------------------------|

 |    |    |    |     |    |    |
   |
|-----------------4---4---5---4----|-----------------4---4---5---4----|
|-2---2---2---5--------------------|-2---2---2---5--------------------|
|----------------------------------|----------------------------------|
|----------------------------------|----------------------------------|

 |    |    |    |     |    |    |
   |
|-----------------0---0---2---0----|-------------------------1--------|
|-------------2--------------------|-------------1---4---4-------4----|
|-3---3---3------------------------|-2---2---2------------------------|
|----------------------------------|----------------------------------|

 |    |    |    |     |    |    |
   |
|----------------------------------|----------------------------------|
|-2-------2-------2-------2--------|----------------------------------|
|----------------------------------|-2---2---2---2---2---2---2---2----|
|----------------------------------|----------------------------------|

 |    |    |    |     |    |    |
   |
|----------------------------------|----------------------------------|
|----------------------------------|-------------------------0--------|
|----------------------------------|----------------------------------|
|----------------------------------|----------------------------------|

 |    |    |    |     |    |    |
   |
|----------------------------------|----------------------------------|
|-3-----------3---2-----------2----|-1-----------1---0-----------0----|
|----------------------------------|----------------------------------|
|----------------------------------|----------------------------------|

 |    |    |    |     |    |    |
   |
|----------------------------------|----------------------------------|
|----------------------------------|-------------------------0--------|
|-4-----------4---3-----------3----|-2-----------2---1----------------|
|----------------------------------|----------------------------------|

 |    |    |    |     |    |    |
   |
|----------------------------------|----------------------------------|
|-3-----------3---2-----------2----|-1-----------1---0-----------0----|
|----------------------------------|----------------------------------|
|----------------------------------|----------------------------------|

 |    |    |    |     |    |    |
   |
|----------------------------------|----------------------------------|
|----------------------------------|-----------------3----------------|
|-4-----------4---3-----------3----|-4-------3------------------------|
|----------------------------------|----------------------------------|




m/

Find guitar tabs and chords

A B C D E F G H I J K L M N O P Q R S T U V W X Y Z #