Bulldog by The Ventures

Bulldog bass tab by The Ventures

Bass tabs

Ventures_Bulldog

Basstab by Jan Bjorklund, Finland

You are welcome to request for basstabs!
Fingering and positions as suggested by TablEdit,
please use common sense!

TablEdited by Jan Bjorklund
Tuning : E A D G 	Time Signature: 4/4

 |    |    |    |     |    |    |
   |
|----------------------------------|---------2-------0---0------------|
|----------------------------------|-------------2-----------2---2----|
|----------------------------------|-0---0----------------------------|
|---------------------0---2---4----|----------------------------------|

 |    |    |    |     |    |    |
   |
|---------2---0--------------------|---------2-------0---0------------|
|----------------------------------|-------------2-----------2---2----|
|-0---0----------------------------|-0---0----------------------------|
|---------------------0---2---4----|----------------------------------|

 |    |    |    |     |    |    |
   |
|---------2---0--------------------|---------7-------5---5------------|
|----------------------------------|-------------7-----------7---7----|
|-0---0---------------0---2---4----|-5---5----------------------------|
|----------------------------------|----------------------------------|

 |    |    |    |     |    |    |
   |
|---------7---5--------------------|---------2-------0---0------------|
|----------------------------------|-------------2-----------2---2----|
|-5---5----------------------------|-0---0----------------------------|
|---------------------0---2---4----|----------------------------------|

 |    |    |    |     |    |    |
   |
|---------2---0-----------0--------|----------------------------------|
|---------------------2-------2----|---------2-------0---0---2---0----|
|-0---0----------------------------|-------------2--------------------|
|----------------------------------|-0---0----------------------------|

 |    |    |    |     |    |    |
   |
|---------7---5--------------------|---------2-------0---0------------|
|-7---7----------------------------|-------------2-----------2---2----|
|----------------------------------|-0---0----------------------------|
|---------------------0---2---4----|----------------------------------|

 |    |    |    |     |    |    |
   |
|----------------------------------|---------2-------0---0------------|
|----------------------------------|-------------2-----------2---2----|
|----------------------------------|-0---0----------------------------|
|-----0---0---0---0---0---2---4----|----------------------------------|

 |    |    |    |     |    |    |
   |
|---------2---0--------------------|---------2-------0---0------------|
|----------------------------------|-------------2-----------2---2----|
|-0---0----------------------------|-0---0----------------------------|
|---------------------0---2---4----|----------------------------------|

 |    |    |    |     |    |    |
   |
|---------2---0--------------------|---------7-------5---5------------|
|----------------------------------|-------------7-----------7---7----|
|-0---0---------------0---2---4----|-5---5----------------------------|
|----------------------------------|----------------------------------|

 |    |    |    |     |    |    |
   |
|---------7---5--------------------|---------2-------0---0------------|
|----------------------------------|-------------2-----------2---2----|
|-5---5----------------------------|-0---0----------------------------|
|---------------------0---2---4----|----------------------------------|

 |    |    |    |     |    |    |
   |
|---------2---0-----------0--------|----------------------------------|
|---------------------2-------2----|---------2-------0---0---2---0----|
|-0---0----------------------------|-------------2--------------------|
|----------------------------------|-0---0----------------------------|

 |    |    |    |     |    |    |
   |
|---------7---5--------------------|---------2-------0---0------------|
|-7---7----------------------------|-------------2-----------2---2----|
|----------------------------------|-0---0----------------------------|
|---------------------0---2---4----|----------------------------------|

 |    |    |    |     |    |    |
   |
|----------------------------------|-2---2---2---0---2---2---0--------|
|----------------------------------|-----------------------------2----|
|----------------------------------|----------------------------------|
|-----0---0---0---0---0---2---4----|----------------------------------|

 |    |    |    |     |    |    |
   |
|-2---2---0---2-------2---0--------|-2---2---2---0---2---2---0--------|
|-----------------------------2----|-----------------------------2----|
|----------------------------------|----------------------------------|
|----------------------------------|----------------------------------|

 |    |    |    |     |    |    |
   |
|-2---2---0---2-------2---0--------|-7---7---7---5---7---7---5--------|
|-----------------------------2----|-----------------------------7----|
|----------------------------------|----------------------------------|
|----------------------------------|----------------------------------|

 |    |    |    |     |    |    |
   |
|-7---7---5---7-------7---5--------|-2---2---2---0---2---2---0--------|
|-----------------------------7----|-----------------------------2----|
|----------------------------------|----------------------------------|
|----------------------------------|----------------------------------|

 |    |    |    |     |    |    |
   |
|-2---2---0---------------0--------|-9---9---7-------9---9---7--------|
|-------------2-------2-------2----|-------------9---------------9----|
|----------------------------------|----------------------------------|
|----------------------------------|----------------------------------|

 |    |    |    |     |    |    |
   |
|-7---7---5-------7---7---5--------|-2---2---2---0---2---2---0--------|
|-------------7---------------7----|-----------------------------2----|
|----------------------------------|----------------------------------|
|----------------------------------|----------------------------------|

 |    |    |    |     |    |    |
   |
|----------------------------------|---------2-------0---0------------|
|-----2---2---2---2---2---2---2----|-------------2-----------2---2----|
|----------------------------------|-0---0----------------------------|
|----------------------------------|----------------------------------|

 |    |    |    |     |    |    |
   |
|---------2---0--------------------|---------2-------0---0------------|
|----------------------------------|-------------2-----------2---2----|
|-0---0----------------------------|-0---0----------------------------|
|---------------------0---2---4----|----------------------------------|

 |    |    |    |     |    |    |
   |
|---------2---0--------------------|---------7-------5---5------------|
|----------------------------------|-------------7-----------7---7----|
|-0---0---------------0---2---4----|-5---5----------------------------|
|----------------------------------|----------------------------------|

 |    |    |    |     |    |    |
   |
|---------7---5--------------------|---------2-------0---0------------|
|----------------------------------|-------------2-----------2---2----|
|-5---5----------------------------|-0---0----------------------------|
|---------------------0---2---4----|----------------------------------|

 |    |    |    |     |    |    |
   |
|---------2---0-----------0--------|----------------------------------|
|---------------------2-------2----|---------2-------0---0---2---0----|
|-0---0----------------------------|-------------2--------------------|
|----------------------------------|-0---0----------------------------|

 |    |    |    |     |    |    |
   |
|---------7---5--------------------|---------2-------0---2---0--------|
|-7---7----------------------------|-------------2---------------2----|
|----------------------------------|-0---0----------------------------|
|---------------------0---2---4----|----------------------------------|

 |    |    |    |     |    |    |
   |
|----------------------------------|----------------------------------|
|----------------------------------|-----------------2---2---4---2----|
|----------------------------------|-0---0---2---4--------------------|
|-----0---0---0---0---0---2---4----|----------------------------------|

 |    |    |    |     |    |    |
   |
|----------------------------------|----------------------------------|
|-----------------2---2---4---2----|-----------------2---2---4---2----|
|-0---0---2---4--------------------|-0---0---2---4--------------------|
|----------------------------------|----------------------------------|

 |    |    |    |     |    |    |
   |
|----------------------------------|-----------------2---2---4---2----|
|----------------------------------|---------2---4--------------------|
|-0---0---0---0---0---0---0---0----|-5---5----------------------------|
|----------------------------------|----------------------------------|

 |    |    |    |     |    |    |
   |
|-----------------2---2---4---2----|----------------------------------|
|---------2---4--------------------|-----------------2---2---4---2----|
|-5---5----------------------------|-0---0---2---4--------------------|
|----------------------------------|----------------------------------|

 |    |    |    |     |    |    |
   |
|-2---2---1---1--------------------|-----------------4---4---6---4----|
|-----------------4---4---2---2----|-------------6--------------------|
|----------------------------------|-7---7---7------------------------|
|----------------------------------|----------------------------------|

 |    |    |    |     |    |    |
   |
|-----------------2---2---4---2----|----------------------------------|
|-------------4--------------------|-----------------2---2---4---2----|
|-5---5---5------------------------|-0---0---2---4--------------------|
|----------------------------------|----------------------------------|

 |    |    |    |     |    |    |
   |
|----------------------------------|----------------------------------|
|-2---2---2---2---2---2---2---2----|-----------------2---2---4---2----|
|----------------------------------|-0---0---2---4--------------------|
|----------------------------------|----------------------------------|

 |    |    |    |     |    |    |
   |
|----------------------------------|----------------------------------|
|-----------------2---2---4---2----|-----------------2---2---4---2----|
|-0---0---2---4--------------------|-0---0---2---4--------------------|
|----------------------------------|----------------------------------|

 |    |    |    |     |    |    |
   |
|----------------------------------|-----------------2---2---4---2----|
|----------------------------------|---------2---4--------------------|
|-0---0---0---0---0---0---0---0----|-5---5----------------------------|
|----------------------------------|----------------------------------|

 |    |    |    |     |    |    |
   |
|-----------------2---2---4---2----|----------------------------------|
|---------2---4--------------------|-----------------2---2---4---2----|
|-5---5----------------------------|-0---0---2---4--------------------|
|----------------------------------|----------------------------------|

 |    |    |    |     |    |    |
   |
|-2---2---1---1--------------------|-----------------4---4---6---4----|
|-----------------4---4---2---2----|-------------6--------------------|
|----------------------------------|-7---7---7------------------------|
|----------------------------------|----------------------------------|

 |    |    |    |     |    |    |
   |
|-----------------2---2---4---2----|----------------------------------|
|-------------4--------------------|-----------------2---2---4---2----|
|-5---5---5------------------------|-0---0---2---4--------------------|
|----------------------------------|----------------------------------|

 |    |    |    |     |    |    |
   |
|----------------------------------|---------2-------0---0------------|
|-2---2---2---2---2---2---2---2----|-------------2-----------2---2----|
|----------------------------------|-0---0----------------------------|
|----------------------------------|----------------------------------|

 |    |    |    |     |    |    |
   |
|---------2---0--------------------|---------2-------0---0------------|
|----------------------------------|-------------2-----------2---2----|
|-0---0----------------------------|-0---0----------------------------|
|---------------------0---2---4----|----------------------------------|

 |    |    |    |     |    |    |
   |
|---------2---0--------------------|---------7-------5---5------------|
|----------------------------------|-------------7-----------7---7----|
|-0---0---------------0---2---4----|-5---5----------------------------|
|----------------------------------|----------------------------------|

 |    |    |    |     |    |    |
   |
|---------7---5--------------------|---------2-------0---0------------|
|----------------------------------|-------------2-----------2---2----|
|-5---5----------------------------|-0---0----------------------------|
|---------------------0---2---4----|----------------------------------|

 |    |    |    |     |    |    |
   |
|---------2---0-----------0--------|----------------------------------|
|---------------------2-------2----|---------2-------0---0---2---0----|
|-0---0----------------------------|-------------2--------------------|
|----------------------------------|-0---0----------------------------|

 |    |    |    |     |    |    |
   |
|---------7---5--------------------|----------------------------------|
|-7---7----------------------------|-----------------0-------0--------|
|----------------------------------|-0-------0------------------------|
|---------------------0---2---4----|----------------------------------|

 |    |    |    |
|----------------------------------|
|----------------------------------|
|-0-------0---0---0----------------|
|----------------------------------|



m/

Find guitar tabs and chords

A B C D E F G H I J K L M N O P Q R S T U V W X Y Z #