Blue Bird by The Ventures

Blue Bird tab by The Ventures

Guitar tabs

Ventures_Blue Bird

Basstab by Jan Bjorklund, Finland

You are welcome to request for basstabs!
Fingering and positions as suggested by TablEdit,
please use common sense!

TablEdited by Jan Bjorklund
Tuning : E A D G 	Time Signature: 4/4

 |    |    |    |     |    |    |
   |
|----------------------------------|----------------------------------|
|-2-------2-------2-------2--------|-2---2---0---0--------------------|
|----------------------------------|-----------------4---4---2---2----|
|----------------------------------|----------------------------------|

 |    |    |    |     |    |    |
   |
|----------------------------------|---------------------6---7---6----|
|-------------------------2---3----|-4-----------7--------------------|
|-0--------------------------------|----------------------------------|
|----------------------------------|----------------------------------|

 |    |    |    |     |    |    |
   |
|----------------------------------|---------------------6---7---6----|
|---------------------2---4---2----|-4-----------4---7----------------|
|-0-----------4--------------------|----------------------------------|
|----------------------------------|----------------------------------|

 |    |    |    |     |    |    |
   |
|---------------------2---4---2----|---------------------4---6---4----|
|-------------4--------------------|-------------6--------------------|
|-5--------------------------------|-7--------------------------------|
|----------------------------------|----------------------------------|

 |    |    |    |     |    |    |
   |
|----------------------------------|----------------------------------|
|---------------------2---4---2----|-2---2---0---0--------------------|
|-0-----------0---4----------------|-----------------4---4---2---2----|
|----------------------------------|----------------------------------|

 |    |    |    |     |    |    |
   |
|----------------------------------|---------------------6---7---6----|
|-------------------------2---3----|-4-----------7--------------------|
|-0--------------------------------|----------------------------------|
|----------------------------------|----------------------------------|

 |    |    |    |     |    |    |
   |
|----------------------------------|---------------------6---7---6----|
|---------------------2---4---2----|-4-----------4---7----------------|
|-0-----------4--------------------|----------------------------------|
|----------------------------------|----------------------------------|

 |    |    |    |     |    |    |
   |
|---------------------2---4---2----|---------------------4---6---4----|
|-------------4--------------------|-------------6--------------------|
|-5--------------------------------|-7--------------------------------|
|----------------------------------|----------------------------------|

 |    |    |    |     |    |    |
   |
|----------------------------------|----------------------------------|
|---------------------2---4---2----|---------------------2---4---2----|
|-0-----------0---4----------------|-0-----------0---4----------------|
|----------------------------------|----------------------------------|

 |    |    |    |     |    |    |
   |
|---------------------6---7---6----|---------------------6---7---6----|
|-4-----------7--------------------|-4-----------7--------------------|
|----------------------------------|----------------------------------|
|----------------------------------|----------------------------------|

 |    |    |    |     |    |    |
   |
|-------------------------0--------|-------------------------0--------|
|-------------0-------4-------4----|-------------0-------4-------4----|
|-2--------------------------------|-2--------------------------------|
|----------------------------------|----------------------------------|

 |    |    |    |     |    |    |
   |
|---------------------11--13--11---|-4---4---2---2---1---1------------|
|-------------13-------------------|-------------------------4---4----|
|-14-------------------------------|----------------------------------|
|----------------------------------|----------------------------------|

 |    |    |    |     |    |    |
   |
|----------------------------------|----------------------------------|
|-2-------2-------2-------2--------|-2---2---0---0--------------------|
|----------------------------------|-----------------4---4---2---2----|
|----------------------------------|----------------------------------|

 |    |    |    |     |    |    |
   |
|----------------------------------|---------------------6---7---6----|
|-------------------------2---3----|-4-----------7--------------------|
|-0--------------------------------|----------------------------------|
|----------------------------------|----------------------------------|

 |    |    |    |     |    |    |
   |
|----------------------------------|---------------------6---7---6----|
|---------------------2---4---2----|-4-----------4---7----------------|
|-0-----------4--------------------|----------------------------------|
|----------------------------------|----------------------------------|

 |    |    |    |     |    |    |
   |
|---------------------2---4---2----|---------------------4---6---4----|
|-------------4--------------------|-------------6--------------------|
|-5--------------------------------|-7--------------------------------|
|----------------------------------|----------------------------------|

 |    |    |    |     |    |    |
   |
|----------------------------------|----------------------------------|
|---------------------2---4---2----|---------------------2---4---2----|
|-0-----------3---4----------------|-0-----------3---4----------------|
|----------------------------------|----------------------------------|

 |    |    |    |     |    |    |
   |
|---------------------6---7---6----|---------------------6---7---6----|
|-4-----------7--------------------|-4-----------7--------------------|
|----------------------------------|----------------------------------|
|----------------------------------|----------------------------------|

 |    |    |    |     |    |    |
   |
|-------------------------0--------|-------------------------0--------|
|-------------0-------4-------4----|-------------0-------4-------4----|
|-2--------------------------------|-2--------------------------------|
|----------------------------------|----------------------------------|

 |    |    |    |     |    |    |
   |
|---------------------11--13--11---|-4---4---2---2---1---1------------|
|-------------13-------------------|-------------------------4---4----|
|-14-------------------------------|----------------------------------|
|----------------------------------|----------------------------------|

 |    |    |    |     |    |    |
   |
|----------------------------------|----------------------------------|
|-2-------2-------2-------2--------|-3---3---3---3---3---3---3---3----|
|----------------------------------|----------------------------------|
|----------------------------------|----------------------------------|

 |    |    |    |     |    |    |
   |
|-3--------------------------------|---------------------7---8---7----|
|-------------------------3---4----|-5-----------8--------------------|
|----------------------------------|----------------------------------|
|----------------------------------|----------------------------------|

 |    |    |    |     |    |    |
   |
|-------------------------0--------|---------------------7---8---7----|
|-------------0-------3-------3----|-5-----------8--------------------|
|-1--------------------------------|----------------------------------|
|----------------------------------|----------------------------------|

 |    |    |    |     |    |    |
   |
|---------------------3---5---3----|---------------------5---7---5----|
|-------------5--------------------|-------------7--------------------|
|-6--------------------------------|-8--------------------------------|
|----------------------------------|----------------------------------|

 |    |    |    |     |    |    |
   |
|-------------------------0--------|----------------------------------|
|-------------0-------3------------|-3---3---1---1---0---0------------|
|-1--------------------------------|-------------------------3---3----|
|----------------------------------|----------------------------------|

 |    |    |    |     |    |    |
   |
|----------------------------------|---------------------7---8---7----|
|-------------------------3---4----|-5-----------8--------------------|
|-1--------------------------------|----------------------------------|
|----------------------------------|----------------------------------|

 |    |    |    |     |    |    |
   |
|-------------------------0--------|---------------------7---8---7----|
|-------------0-------3-------3----|-5-----------8--------------------|
|-1--------------------------------|----------------------------------|
|----------------------------------|----------------------------------|

 |    |    |    |     |    |    |
   |
|---------------------3---5---3----|---------------------5---7---5----|
|-------------5--------------------|-------------7--------------------|
|-6--------------------------------|-8--------------------------------|
|----------------------------------|----------------------------------|

 |    |    |    |     |    |    |
   |
|-3-----------------------0--------|-------------------------0--------|
|-------------0-------3-------3----|-------------0-------3-------3----|
|----------------------------------|-1--------------------------------|
|----------------------------------|----------------------------------|

 |    |    |    |     |    |    |
   |
|---------------------7---8---7----|---------------------7---8---7----|
|-5-----------8--------------------|-5-----------8--------------------|
|----------------------------------|----------------------------------|
|----------------------------------|----------------------------------|

 |    |    |    |     |    |    |
   |
|----------------------------------|---------------------0---1---0----|
|-------------------------1--------|-------------1--------------------|
|-3-----------3--------------------|-3--------------------------------|
|----------------------------------|----------------------------------|

 |    |    |    |     |    |    |
   |
|---------------------12--14--12---|-5---5---3---3---2---2------------|
|-------------14-------------------|-------------------------5---5----|
|-15-------------------------------|----------------------------------|
|----------------------------------|----------------------------------|

 |    |    |    |     |    |    |
   |
|----------------------------------|----------------------------------|
|-3-------3-------3-------3--------|-3---3---1---1---0---0------------|
|----------------------------------|-------------------------3---3----|
|----------------------------------|----------------------------------|

 |    |    |    |     |    |    |
   |
|----------------------------------|---------------------7---8---7----|
|-------------------------3---4----|-5-----------8--------------------|
|-1--------------------------------|----------------------------------|
|----------------------------------|----------------------------------|

 |    |    |    |     |    |    |
   |
|-------------------------0--------|---------------------7---8---7----|
|-------------0-------3-------3----|-5-----------8--------------------|
|-1--------------------------------|----------------------------------|
|----------------------------------|----------------------------------|

 |    |    |    |     |    |    |
   |
|---------------------3---5---3----|---------------------5---7---5----|
|-------------5--------------------|-------------7--------------------|
|-6--------------------------------|-8--------------------------------|
|----------------------------------|----------------------------------|

 |    |    |    |     |    |    |
   |
|-------------------------0--------|---------------------7---8---7----|
|-------------0-------3-------3----|-5-----------8--------------------|
|-1--------------------------------|----------------------------------|
|----------------------------------|----------------------------------|

 |    |    |    |     |    |    |
   |
|-------------------------0--------|---------------------7---8---7----|
|-------------0-------3-------3----|-5-----------8--------------------|
|-1--------------------------------|----------------------------------|
|----------------------------------|----------------------------------|

 |    |    |    |     |    |    |
   |
|-------------------------0--------|---------------------7---8---7----|
|-------------0-------3-------3----|-5-----------8--------------------|
|-1--------------------------------|----------------------------------|
|----------------------------------|----------------------------------|

 |    |    |    |     |    |    |
   |
|-------------------------0--------|-3--------------------------------|
|-------------0-------3-------3----|----------------------------------|
|-1--------------------------------|-----------------1----------------|
|----------------------------------|----------------------------------|



m/

Find guitar tabs and chords

A B C D E F G H I J K L M N O P Q R S T U V W X Y Z #