Black Is Black by The Ventures

Black Is Black tab by The Ventures

Guitar tabs

BLACK IS BLACK

The Ventures

INTRO (x3)
 00:00

 t=131
e|---------------------------------|---------------------------------|
B|-5-------3---5-----------3---5---|---------3---5-----------3---5---|
G|-----4---------------4-----------|-----4---------------4-----------|
D|---------------------------------|---------------------------------|
A|---------------------------------|---------------------------------|
E|---------------------------------|---------------------------------|

e|---------------------------------|---------------------------------|
B|-3-----------3---------------3---|-------------3---------------3---|
G|-----2---4-----------2---4-------|-----2---4-----------2---4-------|
D|---------------------------------|---------------------------------|
A|---------------------------------|---------------------------------|
E|---------------------------------|---------------------------------|


VERSE
 00:22

  Em
e|-----------------------------3---|---------------------------------|
B|---------------------5-----------|---------------------------------|
G|-----------------4---------------|---------------------------------|
D|---------------------------------|---------------------------------|
A|---------------------------------|---------------------------------|
E|---------------------------------|---------------------------------|

e|---------------------------------|---------------------------------|
B|-5-------3---5-----------3---5---|---------3---5-----------3---5---|
G|-----4---------------4-----------|-----4---------------4-----------|
D|---------------------------------|---------------------------------|
A|---------------------------------|---------------------------------|
E|---------------------------------|---------------------------------|


  D
e|---------------------------------|---------------------------------|
B|-----------------3---5-------5--b--7---3---------------------------|
G|-------------2-------------------|-------------2-------------------|
D|---------------------------------|---------------------------------|
A|---------------------------------|---------------------------------|
E|---------------------------------|---------------------------------|

e|---------------------------------|---------------------------------|
B|-3-----------3---------------3---|-------------3---------------3---|
G|-----2---4-----------2---4-------|-----2---4-----------2---4-------|
D|---------------------------------|---------------------------------|
A|---------------------------------|---------------------------------|
E|---------------------------------|---------------------------------|




  Em
e|-----------------------------3---|---------------------------------|
B|---------------------5-----------|---------------------------------|
G|-------------4---4---------------|---------------------------------|
D|---------------------------------|---------------------------------|
A|---------------------------------|---------------------------------|
E|---------------------------------|---------------------------------|

e|---------------------------------|---------------------------------|
B|-5-------3---5-----------3---5---|---------3---5-----------3---5---|
G|-----4---------------4-----------|-----4---------------4-----------|
D|---------------------------------|---------------------------------|
A|---------------------------------|---------------------------------|
E|---------------------------------|---------------------------------|




  A
e|---------------------------------|---------------------------------|
B|-------------2---2---3-------5---|---------------------------------|
G|---------------------------------|-----6---------------------------|
D|---------------------------------|-------------7-------5-----------|
A|---------------------------------|---------------------------------|
E|---------------------------------|---------------------------------|

e|-5-------3---5-----------3---5---|---------3---5-----------3---5---|
B|-----5---------------5-----------|-----5---------------5-----------|
G|---------------------------------|---------------------------------|
D|---------------------------------|---------------------------------|
A|---------------------------------|---------------------------------|
E|---------------------------------|---------------------------------|




  D
e|-----------------2---3-------5---|-------------------------5-------|
B|-------------5---3---5-------7---|-------------------------7-------|
G|-------------6-------------------|---------------------------------|
D|-4-------------------------------|---------------------------------|
A|---------------------------------|---------------------------------|
E|---------------------------------|---------------------------------|

e|---------------------------------|---------------------------------|
B|-3-----------3---------------3---|-------------3---------------3---|
G|-----2---4-----------2---4-------|-----2---4-----------2---4-------|
D|---------------------------------|---------------------------------|
A|---------------------------------|---------------------------------|
E|---------------------------------|---------------------------------|




  Em                A
e|-7-------5-------3---2-------3---|---------------------------------|
B|-8-------7-------5---3-------5---|-----------------2---3---5-------|
G|---------------------------------|---------------------------------|
D|---------------------------------|---------------------------------|
A|---------------------------------|---------------------------------|
E|---------------------------------|---------------------------------|

e|---------------------------------|-5-------3---5-----------3---5---|
B|-5-------3---5-----------3---5---|-----5---------------5-----------|
G|-----4---------------4-----------|---------------------------------|
D|---------------------------------|---------------------------------|
A|---------------------------------|---------------------------------|
E|---------------------------------|---------------------------------|




  D
e|---------------------------------|---------------------------------|
B|/5-------3-----------------------|---------------------------------|
G|---------------------------------|---------------------------------|
D|---------------------------------|---------------------------------|
A|---------------------------------|---------------------------------|
E|---------------------------------|---------------------------------|

e|---------------------------------|---------------------------------|
B|-3-----------3---------------3---|-------------3---------------3---|
G|-----2---4-----------2---4-------|-----2---4-----------2---4-------|
D|---------------------------------|---------------------------------|
A|---------------------------------|---------------------------------|
E|---------------------------------|---------------------------------|




VERSE

 00:48 ....



e|---------------------------------|---------------------------------|
B|---------------------------------|---------------------------------|
G|---------------------------------|-----------------------------4---|
D|---------------------------------|---------------------------------|
A|---------------------------------|---------------------------------|
E|---------------------------------|---------------------------------|




BRIDGE

 01:14


  E                 F#m
e|---------------------------------|---------------------------------|
B|-5---5-------5---------------5---|-7---7-------7-----------5---7---|
G|---------------------------------|---------------------------------|
D|---------------------------------|---------------------------------|
A|---------------------------------|---------------------------------|
E|---------------------------------|---------------------------------|



  G                         F#   F
e|---------------------------------|---------3-------2-------1-------|
B|-8-------8-------8---------------|---------3-------2-------1-------|
G|---------------------------------|---------4-------3-------2-------|
D|---------------------------------|---------------------------------|
A|---------------------------------|---------------------------------|
E|---------------------------------|---------------------------------|



  E
e|-4---4---4---4-------------------|-4---4---4---4-------------------|
B|-5---5---5---5-----------5-------|-5---5---5---5---------5----5----|
G|---------------------4-------4---|---------------------------------|
D|---------------------------------|---------------------------------|
A|---------------------------------|---------------------------------|
E|---------------------------------|---------------------------------|



  A                     F#m   B
e|-5-------5-------5---------------|---------5-------7---------------|
B|-5-------5-------5---------------|---------7-------7---------------|
G|---------------------------------|---------6-------8---------------|
D|---------------------------------|---------------------------------|
A|---------------------------------|---------------------------------|
E|---------------------------------|---------------------------------|




VERSE

 01:28


  Em
e|-----------------------------3---|---------------------------------|
B|---------------------5-----------|---------------------------------|
G|-----------------4---------------|---------------------------------|
D|---------------------------------|---------------------------------|
A|---------------------------------|---------------------------------|
E|---------------------------------|---------------------------------|




  D
e|---------------------------------|---------------------------------|
B|-----------------3---5-------7---|---------------------------------|
G|-------------2-------------------|-----7---------------------------|
D|---------------------------------|-------------7-------------------|
A|---------------------------------|---------------------------------|
E|---------------------------------|---------------------------------|




  Em
e|-------------------------3-------|---------------------------------|
B|---------------------5-----------|---------------------------------|
G|-------------4---4---------------|---------------------------------|
D|---------------------------------|---------------------------------|
A|---------------------------------|---------------------------------|
E|---------------------------------|---------------------------------|




  A
e|---------------------------------|---------------------------------|
B|-------------2---2---3-------5---|---------------------------------|
G|---------------------------------|-----6---------------------------|
D|---------------------------------|-------------7-------5-----------|
A|---------------------------------|---------------------------------|
E|---------------------------------|---------------------------------|




  D
e|-----------------2---2---3---5---|-------------------------5-------|
B|-------------5---3---3---5---7---|-------------------------7-------|
G|-------------6-------------------|---------------------------------|
D|-4-------------------------------|---------------------------------|
A|---------------------------------|---------------------------------|
E|---------------------------------|---------------------------------|




  Em                A
e|-7-------5-------3---2-------3---|---------------------------------|
B|-8-------7-------5---3-------5---|-----------------2---3---5-------|
G|---------------------------------|---------------------------------|
D|---------------------------------|---------------------------------|
A|---------------------------------|---------------------------------|
E|---------------------------------|---------------------------------|




  D
e|---------------------------------|---------------------------------|
B|/5-------3-----------------------|---------------------------------|
G|---------------------------------|-----------------------------4---|
D|---------------------------------|---------------------------------|
A|---------------------------------|---------------------------------|
E|---------------------------------|---------------------------------|




BRIDGE

 01:54 ....



VERSE

 02:09


  Em
e|-----------------------------3---|---------------------------------|
B|---------------------5-----------|---------------------------------|
G|-----------------4---------------|---------------------------------|
D|---------------------------------|---------------------------------|
A|---------------------------------|---------------------------------|
E|---------------------------------|---------------------------------|




  D
e|---------------------------------|---------------------------------|
B|-----------------3---5-------5--b--7---3---------------------------|
G|-------------2-------------------|-------------2-------------------|
D|---------------------------------|---------------------------------|
A|---------------------------------|---------------------------------|
E|---------------------------------|---------------------------------|




  Em
e|-------------------------3-------|---------------------------------|
B|---------------------5-----------|---------------------------------|
G|-------------4---4---------------|---------------------------------|
D|---------------------------------|---------------------------------|
A|---------------------------------|---------------------------------|
E|---------------------------------|---------------------------------|




  A
e|---------------------------------|---------------------------------|
B|-------------2---2---3-------5---|---------------------------------|
G|---------------------------------|-----6---------------------------|
D|---------------------------------|-------------7-------5-----------|
A|---------------------------------|---------------------------------|
E|---------------------------------|---------------------------------|




  D
e|-----------------2---2---3---5---|-------------------------5-------|
B|-------------5---3---3---5---7---|-------------------------7-------|
G|-------------6-------------------|---------------------------------|
D|-4-------------------------------|---------------------------------|
A|---------------------------------|---------------------------------|
E|---------------------------------|---------------------------------|




  Em                A
e|-7-------5-------3---2-------3---|---------------------------------|
B|-8-------7-------5---3-------5---|-----------------2---3---5-------|
G|---------------------------------|---------------------------------|
D|---------------------------------|---------------------------------|
A|---------------------------------|---------------------------------|
E|---------------------------------|---------------------------------|




  D
e|---------------------------------|-------------------------5---6---|
B|/5-------3-----------------------|-------------------------7---7---|
G|---------------------------------|---------------------------------|
D|---------------------------------|---------------------------------|
A|---------------------------------|---------------------------------|
E|---------------------------------|---------------------------------|




CODA

 02:35


  Em
e|-7-------5-------3---2-------3---|---------------------------------|
B|-8-------7-------5---3-------5---|-----------------2---3---5-------|
G|---------------------------------|---------------------------------|
D|---------------------------------|---------------------------------|
A|---------------------------------|---------------------------------|
E|---------------------------------|---------------------------------|



  D                 F        G
e|/3-------2-----------------------|-5---------------3---------------|
B|/5-------3-----------------------|-6---------------3---------------|
G|---------------------------------|-5---------------4---------------|
D|---------------------------------|---------------------------------|
A|---------------------------------|---------------------------------|
E|---------------------------------|---------------------------------|



  D
e|-5-------------------------------|---------------------------------|
B|-7-------------------------------|---------------------------------|
G|-7-------------------------------|---------------------------------|
D|-7-------------------------------|---------------------------------|
A|---------------------------------|---------------------------------|
E|---------------------------------|---------------------------------|

Find guitar tabs and chords

A B C D E F G H I J K L M N O P Q R S T U V W X Y Z #