Apache by The Ventures

Apache tab by The Ventures

Guitar tabs

ventures_Apache

Basstab by Jan Bjorklund, Finland

You are welcome to request for basstabs!
Fingering and positions as suggested by TablEdit,
please use common sense!

TablEdited by Jan Bjorklund
Tuning : E A D G 	Time Signature: 4/4

 |    |    |    |     |    |    |
   |
|-----------------------------0----|-2---------------------------2----|
|-------------------------2--------|-----------------2-------2--------|
|----------------------------------|----------------------------------|
|----------------------------------|----------------------------------|

 |    |    |    |     |    |    |
   |
|-----------------------------0----|-2---------------------------0----|
|-4---------------0-------2--------|-----------------2-------2--------|
|----------------------------------|----------------------------------|
|----------------------------------|----------------------------------|

 |    |    |    |     |    |    |
   |
|-2---------------------------0----|-2---------------------------2----|
|-----------------2-------2--------|-----------------2-------2--------|
|----------------------------------|----------------------------------|
|----------------------------------|----------------------------------|

 |    |    |    |     |    |    |
   |
|-----------------------------0----|-2---------------------------0----|
|-4---------------0-------2--------|-----------------2-------2--------|
|----------------------------------|----------------------------------|
|----------------------------------|----------------------------------|

 |    |    |    |     |    |    |
   |
|-2--------------------------------|----------------------------------|
|-----------------2----------------|-0---------------------------0----|
|-------------------------0---3----|-----------------0-------0--------|
|----------------------------------|----------------------------------|

 |    |    |    |     |    |    |
   |
|----------------------------------|----------------------------------|
|----------------------------------|-0--------------------------------|
|-2-----------------------0---3----|-----------------0-------0---3----|
|-----------------3----------------|----------------------------------|

 |    |    |    |     |    |    |
   |
|-----------------------------0----|-2---------------------------2----|
|-0-----------------------2--------|-----------------2-------2--------|
|-----------------0----------------|----------------------------------|
|----------------------------------|----------------------------------|

 |    |    |    |     |    |    |
   |
|-----------------------------0----|-2---------------------------0----|
|-4---------------0-------2--------|-----------------2-------2--------|
|----------------------------------|----------------------------------|
|----------------------------------|----------------------------------|

 |    |    |    |     |    |    |
   |
|-2--------------------------------|----------------------------------|
|-----------------2-----------2----|-3---------------------------2----|
|-------------------------3--------|-----------------3-------3--------|
|----------------------------------|----------------------------------|

 |    |    |    |     |    |    |
   |
|----------------------------------|----------------------------------|
|-3---------------------------1----|-2---------------------------1----|
|-----------------3-------3--------|-----------------0-------3--------|
|----------------------------------|----------------------------------|

 |    |    |    |     |    |    |
   |
|----------------------------------|----------------------------------|
|-2---------------------------2----|-3---------------------------2----|
|-----------------0-------3--------|-----------------3-------3--------|
|----------------------------------|----------------------------------|

 |    |    |    |     |    |    |
   |
|----------------------------------|----------------------------------|
|-3---------------------------1----|-2---------------------------1----|
|-----------------3-------3--------|-----------------0-------3--------|
|----------------------------------|----------------------------------|

 |    |    |    |     |    |    |
   |
|----------------------------------|----------------------------------|
|-2---------------------------2----|-3-----------------------0---4----|
|-----------------0-------3--------|-----------------3----------------|
|----------------------------------|----------------------------------|

 |    |    |    |     |    |    |
   |
|-0---------------------------0----|-2---------------------------0----|
|-----------------0-------2--------|-----------------2-------2--------|
|----------------------------------|----------------------------------|
|----------------------------------|----------------------------------|

 |    |    |    |     |    |    |
   |
|-2--------------------------------|----------------------------------|
|-----------------2-----------2----|-3-----------------------0---4----|
|-------------------------3--------|-----------------3----------------|
|----------------------------------|----------------------------------|

 |    |    |    |     |    |    |
   |
|-----------------------------4----|-5-----------------------5---4----|
|-5-----------------------5--------|-----------------5----------------|
|-----------------5----------------|----------------------------------|
|----------------------------------|----------------------------------|

 |    |    |    |     |    |    |
   |
|-3---------------0----------------|----------------------------------|
|-----------------------------2----|-3-----------------------0---4----|
|-------------------------3--------|-----------------3----------------|
|----------------------------------|----------------------------------|

 |    |    |    |     |    |    |
   |
|-0---------------------------0----|-2---------------------------0----|
|-----------------0-------2--------|-----------------2-------2--------|
|----------------------------------|----------------------------------|
|----------------------------------|----------------------------------|

 |    |    |    |     |    |    |
   |
|-2--------------------------------|----------------------------------|
|-----------------2-----------2----|-3---------------------------2----|
|-------------------------3--------|-----------------3-------3--------|
|----------------------------------|----------------------------------|

 |    |    |    |     |    |    |
   |
|----------------------------------|----------------------------------|
|-3---------------------------1----|-2---------------------------1----|
|-----------------3-------3--------|-----------------0-------3--------|
|----------------------------------|----------------------------------|

 |    |    |    |     |    |    |
   |
|----------------------------------|----------------------------------|
|-2---------------------------2----|-3---------------------------2----|
|-----------------0-------3--------|-----------------3-------3--------|
|----------------------------------|----------------------------------|

 |    |    |    |     |    |    |
   |
|----------------------------------|----------------------------------|
|-3---------------------------1----|-2---------------------------1----|
|-----------------3-------3--------|-----------------0-------3--------|
|----------------------------------|----------------------------------|

 |    |    |    |     |    |    |
   |
|-----------------------------2----|-2-----------2---2-----------2----|
|-2--------------------------------|----------------------------------|
|-----------------0----------------|----------------------------------|
|----------------------------------|----------------------------------|

 |    |    |    |     |    |    |
   |
|----------------------------------|-2-----------2---2-----------2----|
|-0-----------0---0-----------0----|----------------------------------|
|----------------------------------|----------------------------------|
|----------------------------------|----------------------------------|

 |    |    |    |     |    |    |
   |
|-2-----------2---2-----------2----|-2-----------2---2-----------2----|
|----------------------------------|----------------------------------|
|----------------------------------|----------------------------------|
|----------------------------------|----------------------------------|

 |    |    |    |     |    |    |
   |
|----------------------------------|-2-----------2---2-----------2----|
|-0-----------0---0-----------0----|----------------------------------|
|----------------------------------|----------------------------------|
|----------------------------------|----------------------------------|

 |    |    |    |     |    |    |
   |
|-2-----------2---2----------------|----------------------------------|
|----------------------------------|-0---------------------------0----|
|-------------------------0---3----|-----------------0-------0--------|
|----------------------------------|----------------------------------|

 |    |    |    |     |    |    |
   |
|----------------------------------|----------------------------------|
|----------------------------------|-0--------------------------------|
|-2-----------------------0---3----|-----------------0-------0---3----|
|-----------------3----------------|----------------------------------|

 |    |    |    |     |    |    |
   |
|-----------------------------2----|-2-----------2---2-----------2----|
|-0--------------------------------|----------------------------------|
|-----------------0----------------|----------------------------------|
|----------------------------------|----------------------------------|

 |    |    |    |     |    |    |
   |
|----------------------------------|-2-----------2---2-----------2----|
|-0-----------0---0-----------0----|----------------------------------|
|----------------------------------|----------------------------------|
|----------------------------------|----------------------------------|

 |    |    |    |     |    |    |
   |
|-2-----------2---2----------------|----------------------------------|
|-----------------------------2----|-3-----------------------0---4----|
|-------------------------3--------|-----------------3----------------|
|----------------------------------|----------------------------------|

 |    |    |    |     |    |    |
   |
|-0---------------------------0----|-2---------------------------0----|
|-----------------0-------2--------|-----------------2-------2--------|
|----------------------------------|----------------------------------|
|----------------------------------|----------------------------------|

 |    |    |    |     |    |    |
   |
|-2--------------------------------|----------------------------------|
|-----------------2-----------2----|-3-----------------------0---4----|
|-------------------------3--------|-----------------3----------------|
|----------------------------------|----------------------------------|

 |    |    |    |     |    |    |
   |
|-----------------------------4----|-5-----------------------5---4----|
|-5-----------------------5--------|-----------------5----------------|
|-----------------5----------------|----------------------------------|
|----------------------------------|----------------------------------|

 |    |    |    |     |    |    |
   |
|-3---------------0----------------|----------------------------------|
|-----------------------------2----|-3-----------------------0---4----|
|-------------------------3--------|-----------------3----------------|
|----------------------------------|----------------------------------|

 |    |    |    |     |    |    |
   |
|-0---------------------------0----|-2---------------------------0----|
|-----------------0-------2--------|-----------------2-------2--------|
|----------------------------------|----------------------------------|
|----------------------------------|----------------------------------|

 |    |    |    |     |    |    |
   |
|-2--------------------------------|----------------------------------|
|-----------------2-----------2----|-3---------------------------2----|
|-------------------------3--------|-----------------3-------3--------|
|----------------------------------|----------------------------------|

 |    |    |    |     |    |    |
   |
|----------------------------------|----------------------------------|
|-3---------------------------1----|-2---------------------------1----|
|-----------------3-------3--------|-----------------0-------3--------|
|----------------------------------|----------------------------------|

 |    |    |    |     |    |    |
   |
|----------------------------------|----------------------------------|
|-2---------------------------2----|-3---------------------------2----|
|-----------------0-------3--------|-----------------3-------3--------|
|----------------------------------|----------------------------------|

 |    |    |    |     |    |    |
   |
|----------------------------------|----------------------------------|
|-3---------------------------1----|-2---------------------------1----|
|-----------------3-------3--------|-----------------0-------3--------|
|----------------------------------|----------------------------------|

 |    |    |    |
|----------------------------------|
|-2--------------------------------|
|-----------------0----------------|
|----------------------------------|
m/

Find guitar tabs and chords

A B C D E F G H I J K L M N O P Q R S T U V W X Y Z #