Log in

One click and you are in

Login with Facebook Login with Google

Why sign up and log in

Guitar Tabs Explorer
Vasco Rossi tabs for Timmagini live

Guitar tabs with lyrics

-------------------------------------------------------------------------------
                             T'IMMAGINI - Vasco Rossi
                        Il Mondo Che Vorrei Live 2008 Version
-------------------------------------------------------------------------------
Tabbed by: Francesco Polese
E-mail: francesco.polese@gmail.com

This is my first tab.. I also wrote the solo.. It is not the same in every part
but it sounds good.. :)
I'm sorry for any other mistakes!

Hope you enjoy it!
Tuning:
EADGBE

This is the INTRO played by Maurizio Solieri
At the second time enters Stef Burns with an open A chord diagramA augmentedA chord, then enters all the band

                              X4
A chord diagramE MajorE||---------------------------||
A chord diagramBB||---------------------------||
A chord diagramG+G||--------------------------*||
A chord diagramD MajorD||--7--------5-----4-----7--*||
A chord diagramA augmentedA||--7--5--7-----7-----5--7---||
A chord diagramE MajorE||--5--------------------5---||

A chord diagramA augmentedA
T'IMMAGINI

A chord diagramD MajorD
la faccia che farebbero

              A chord diagramE MajorE
se da domani davvero

                         A chord diagramD MajorD   A chord diagramA augmentedA A chord diagramA augmentedA  A chord diagramD MajorD A chord diagramD MajorD A chord diagramA augmentedA A chord diagramA augmentedA
davvero tutti quanti "smettessimo"!!

... And so on..

INTERLUDE PART.. This is what I heard..

e--------------------------|--------------|
b--------------------------|--------------|
g--------------------------|--------------|
d--------------------------|--------------|
a-----7--------5--------4--|--------0h2---|
e--0-----0--0-----0--0-----|--0-----------|

A chord diagramA augmentedA
A chord diagramA augmentedA meno che

A chord diagramF# minorF#m
non siate già tutti d'accordo con me

A chord diagramD MajorD
che c'c qualcosa che...

              A chord diagramE MajorE
QUALCOSA che non va...
NON SO...PERÒ...MAH!

repeat X2

A chord diagramA augmentedA                                A chord diagramD MajorD
Fantasie, fantasie che volano libere

A chord diagramE MajorE
fantasie che a volte fan ridere

A chord diagramA augmentedA
fantasie che credono alle favole...

T'IMMAGINI
la fregatura che han preso
quelli che son partiti
tutti di corsa, tutti quanti per il Messico...

T'IMMAGINI
se fosse sempre Domenica
tu fossi sempre libera
e se tua madre fosse meno Nevrotica!!!

INTERLUDE PART like the first!

A chord diagramA augmentedA                                A chord diagramF# minorF#m    A chord diagramF# minorF#m A chord diagramF# minorF#m A chord diagramF# minorF#m
Fantasie, fantasie che volano libere

A chord diagramD MajorD
fantasie che a volte fan ridere

A chord diagramE MajorE
fantasie che credono alle favole...
....favole, favole, favole, favole,
favole......FA! FA! FAVOLE!!!!!

The rythm guitar during the solo plays

A chord diagramA augmentedA    A chord diagramF# minorF#m    A chord diagramD MajorD     A chord diagramE MajorE

/*************************************************************************/
Here's the solo by Solieri

E--------------------------|---------------------------|--------|
B--------------------------|---------5-----------------|--------|
G--------------2--4--2-----|--2--4b-----4--2-----------|--------|
D--------2--4-----------4--|------------------4--2--0--|--------|
A--2--4--------------------|---------------------------|--2-----|
E--------------------------|---------------------------|-----2--|

E-------------------------------------|--------------17--15--14----------|
B------17---------------------17--14--|--17--14------------------17--15--|
G------16b--16br--14------14----------|----------16----------------------|
D--14-----------------16--------------|----------------------------------|
A-------------------------------------|----------------------------------|
E-------------------------------------|----------------------------------|

E--------------|--------------------------------------------|
B--14----------|--10---10---10-------------------------10---|
G------16--14--|---9b---9b---9--7--9--7-------------11------|
D--------------|--------------------------------------------|
A--------------|--------------------------------------------|
E--------------|--------------------------------------------|

E-------------------------------------|--------------------------------||
B--12--12b--12b--12b--12--10--12--10--|--------17br--------------------||
G-------------------------------------|--------------16br--14--16--14--||
D-------------------------------------|--------------------------------||
A-------------------------------------|--------------------------------||
E-------------------------------------|--------------------------------||





************************************

| /   slide up
|    slide down
| h   hammer-on
| p   pull-off
| ~   vibrato
| +   harmonic
| x   Mute note
| b   Bend
| pb  Pre-bend
| br  Bend release
| pbr Pre-bend release
| brb Bend release bend

************************************

Almost there ...

Sign in to get your own page with links to favourite songs and more. You are just one click away...

Login with Facebook Login with Google