Log in

One click and you are in

Login with Facebook Login with Google

Why sign up and log in

Guitar Tabs Explorer
Vasco Rossi bass tabs for Sono ancora in coma

Bass tabs

Tuning: Standard (E A D G)

Key: C

Difficulty: Novice

SONO ANCORA IN COMA - VASCO
Da "VADO AL MASSIMO" (1982)
Intro:
 G|----------------|----------------|----------------|----------------|>
 D|----------------|----------------|----------------|----------------|>
 A|----------------|----------------|----------------|--------------7-|>
 E|----------------|----------------|----------------|----------------|>

 G|----------------|----------------|----------------|----------------||
 D|----------------|----------------|----------------|----------------||
 A|----------------|----------------|----------------|----------------||
 E|----5-------5---|----5-------5---|----5-------5---|----5---7-8---5-||

Pre-Verse: x 2
 G|----------------|----------------|----------------|----------------||
 D|----------------|----------------|----------------|----------------||
 A|----------------|----------------|----------------|----------------||
 E|--5-5-5-5-5-5-5-|5-5-5-5-5-5-5-5-|5-5-5-5-5-5-5-5-|5-5-5-5-7-8---5-||


Verse:
 G|----------------|----------------|----------------|----------------|>
 D|----------------|----------------|----------------|----------------|>
 A|----------------|----------------|----------------|----------------|>
 E|--5-5-5-5-5-5-5-|5-5-5-5-5-5-5-5-|7-7-7-7-7-7-7-7-|7-7-7-7-7-7-7-7-|>

 G|----------------|----------------|----------------|----------------||
 D|----------------|----------------|----------------|----------------||
 A|3-3-3-3-3-3-3-3-|3-3-3-3-3-3-3-3-|5-5-5-5-5-5-5-5~|----------------||
 E|----------------|----------------|----------------|--------7-8---5-||

Pre-Verse: x 1
 G|----------------|----------------|----------------|----------------||
 D|----------------|----------------|----------------|----------------||
 A|----------------|----------------|----------------|----------------||
 E|--5-5-5-5-5-5-5-|5-5-5-5-5-5-5-5-|5-5-5-5-5-5-5-5-|5-5-5-5-7-8---5-||

Verse:
 G|----------------|----------------|----------------|----------------|>
 D|----------------|----------------|----------------|----------------|>
 A|----------------|----------------|----------------|----------------|>
 E|--5-5-5-5-5-5-5-|5-5-5-5-5-5-5-5-|7-7-7-7-7-7-7-7-|7-7-7-7-7-7-7-7-|>

 G|----------------|----------------|----------------|----------------||
 D|----------------|----------------|----------------|----------------||
 A|3-3-3-3-3-3-3-3-|3-3-3-3-3-3-3-3-|5-5-5-5-5-5-5-5~|----------------||
 E|----------------|----------------|----------------|--------7-8---5-||

Pre-Verse: x 2
 G|----------------|----------------|----------------|----------------||
 D|----------------|----------------|----------------|----------------||
 A|----------------|----------------|----------------|----------------||
 E|--5-5-5-5-5-5-5-|5-5-5-5-5-5-5-5-|5-5-5-5-5-5-5-5-|5-5-5-5-7-8---5-||


Verse II:
 G|----------------|----------------|----------------|----------------|>
 D|----------------|----------------|----------------|----------------|>
 A|----------------|----------------|----------------|--------------3-|>
 E|--------------5-|--------------7-|--------------7-|----------------|>

 G|----------------|----------------|----------------|----------------||
 D|----------------|----------------|----------------|----------------||
 A|--------------3-|--------------5-|----------------|----------------||
 E|----------------|----------------|--------------3-|--------7-8---5-||

Guitar Solo I:
 G|----------------|----------------|----------------|----------------|>
 D|----------------|----------------|----------------|----------------|>
 A|----------------|----------------|----------------|----------------|>
 E|--5-5-5-5-5-5-5-|5-5-5-5-5-5-5-5-|5-5-5-5-5-5-5-5-|5-5-5-5-7-8---5-|>

 G|----------------|----------------|----------------|----------------||
 D|----------------|----------------|----------------|----------------||
 A|----------------|----------------|---------------/|7---7---5-------||
 E|--5-5-5-5-5-5-5-|5-5-5-5-5-5-5-5-|5-5-5-5-5-5-5-5-|------------3---||

Guitar Solo II:
 G|----------------|----------------|----------------|----------------|>
 D|----------------|----------------|----------------|----------------|>
 A|----------------|----------------|----------------|----------------|>
 E|5-3-5-3-5---5-3-|5-3-5-3-5---5-3-|5-3-5-3-5-0h5-3-|5-3-5---0-0-3-4-|>

 G|----------------|----------------|----------------|----------------||
 D|----------------|----------------|----------------|----------------||
 A|----------------|----------------|----------------|----------------||
 E|5-3-5-3-5---5-3-|5-3-5-3-5---5-3-|5-3-5-3-5---5-3-|5-3-5---5-5-0-3-||

Interlude:
 G|----------------|----------------|----------------|----------------||
 D|----------------|----------------|----------------|----------------||
 A|----------------|----------------|----------------|----------------||
 E|5-5-5-5-5-5-5-5-|5-5-5-5-5-5-5-5-|5-5-5-5-5-5-5-5-|5-5-5-5-5-5-5-5-||


Verse III:
 G|----------------|----------------|----------------|----------------|>
 D|----------------|----------------|----------------|----------------|>
 A|----------------|----------------|----------------|----------------|>
 E|5-5-5-5-5-5-5-5-|5-5-5-5-5-5-5-5-|0-1-1-1-1-1-1-1-|1-1-1-1-1-1-1-1-|>

 G|----------------|----------------|----------------|----------------|>
 D|----------------|----------------|----------------|----------------|>
 A|----------------|----------------|----------------|----------------|>
 E|0-5-5-5-5-5-5-5-|5-5-5-5-5-5-5-5-|0-1-1-1-1-1-1-1-|1-1-1-1-1-1-1-1-|>

 G|----------------|----------------|----------------|----------------||
 D|----------------|----------------|----------------|----------------||
 A|----------------|----------------|----------------|----------------||
 E|0-5-5-5-5-5-5-5-|5-5-5-5-5-5-5-5-|0-1-1-1-1-1-1-3~|--------7-8---5-||


Outro:
 G|----------------|----------------|----------------|----------------|>
 D|----------------|----------------|----------------|----------------|>
 A|----------------|----------------|----------------|----------------|>
 E|--5-5-5-5-5-5-5-|5-5-5-5-5-5-5-5-|5-5-5-5-5-5-5-5-|5-5-5-5-7-8---5-|>

 G|----------------|----------------|----------------|----------------|>
 D|----------------|----------------|----------------|----------------|>
 A|----------------|----------------|----------------|5~--------------|>
 E|--5-5-5-5-5-5-5-|5-5-5-5-5-5-5-5-|5-5-5-5-5-5-5-5-|----------------|>

 G|----------------|------------777~|------------777~|----------------||
 D|----------------|----------------|----------------|----------------||
 A|----------------|5~--------------|----------------|--5-------5-----||
 E|----------------|----------------|----------------|------5-------5-||


****************************************

~ let ring
/ slide up
h hammer on

****************************************

Almost there ...

Sign in to get your own page with links to favourite songs and more. You are just one click away...

Login with Facebook Login with Google