Log in

One click and you are in

Login with Facebook Login with Google

Why sign up and log in

Guitar Tabs Explorer
Vasco Rossi bass tabs for La verità

Bass tabs

Tuning: Standard (E A D G)

-----------------------------------------------
VASCO ROSSI - La Verità (2018) Bass Tab by MK98
-----------------------------------------------
G|----------------|----------------|----------------|----------------|
D|----------------|----------------|----------------|----------------|
A|----------------|----------------|-5--------------|-2--------------|
E|-2--------------|-0--------------|----------------|----------------|
  Intro...

G|----------------|----------------|----------------|----------------|
D|----------------|----------------|----------------|----------------|
A|----------------|----------------|-5--------------|-2--------------|
E|-2--------------|-0--------------|----------------|----------------|
  S'imbosca...   Rimescola...   Nessuno sa...  ...o se ne va.

G|----------------|----------------|----------------|----------------|
D|----------------|----------------|----------------|----------------|
A|----------------|----------------|-5--------------|-2--------------|
E|-2--------------|-0--------------|----------------|----------------|
  Non mette...   Non crede...   Non guarda...  Non ama la...

G|----------------|----------------|----------------|----------------|----------------|----------------|
D|----------------|----------------|----------------|----------------|----------------|----------------|
A|-5--------------|-7--------------|-5--------------|-77-77-77-77-77-|-77-77-77-77-77-|7---------------|
E|----------------|----------------|----------------|----------------|----------------|----------------|
  E tutti lì...  E tutti...    Si chiede...   Dov'è come...  Che cos'è...

G|----------------|----------------|----------------|----------------|
D|----------------|----------------|----------------|----------------|
A|-2-2-2-2-2-2-2-2|-7-7-7-7-7-7-7-7|----------------|------------46--|
E|----------------|----------------|-5-5-5-5-5-5-4-0|-2-2-2-2-2-2--75|
  La verità...   La verità...   La verità...   ...scuse

G|----------------|----------------|----------------|----------------|
D|----------------|----------------|----------------|----------------|
A|-2-2-2-2-2-2-2-2|-7-7-7-7-7-7-7-7|---------4-4-4-4|-5-5-5-5-5-5-5-0|
E|----------------|----------------|-5-5-5-5--------|----------------|
  La verità...   La verità...   La verità...   ...possono sbagliare

G|----------------|----------------|----------------|----------------|----------------|
D|----------------|----------------|----------------|----------------|----------------|
A|----------------|-5-5-5-5-5-5-5-0|-4-4-4-4-4-4-4-4|----------------|-7-7-7-7-5-5-5-5|
E|-2-2-2-2-2-2-2-2|----------------|----------------|-2-2-2-2-2-2-2-2|----------------|
  Devi sapere...  ...parte stare  ...fa male!

G|----------------|----------------|----------------|
D|----------------|----------------|----------------|
A|----------------|-7-7-7-7-5-5-5-5|5---------------|
E|-2-2-2-2-2-2-2-2|----------------|----------------|

G|----------------|----------------|----------------|----------------|
D|----------------|----------------|----------------|----------------|
A|----------------|----------------|-5-5-5-5-5-5-5-0|-2-2-2-2-2-2-2--|
E|-2-2-2-2-2-2-2-2|-0-0-0-0-0-0-0-0|----------------|---------------0|
  Si cercano...  Si ascoltano... Ognuno sa...   ...chi sarà

G|----------------|----------------|----------------|----------------|
D|----------------|----------------|----------------|----------------|
A|----------------|----------------|-5-5-5-5-5-5-5-0|-2-2-2-2-2-2-2-2|
E|-2-2-2-2-2-2-2-2|-0-0-0-0-0-0-0-0|----------------|----------------|
  Si vietano...  Proibiz...    Vietato...    ...stare là!

G|----------------|----------------|----------------|----------------|----------------|----------------|
D|----------------|----------------|----------------|----------------|----------------|----------------|
A|-5-5-5-5-5-5-5-0|-7-7-7-7-7-7-7-7|-5-5-5-5-5-5-5-0|-77-77-77-77-77-|-77-77-77-77-77-|7---------------|
E|----------------|----------------|----------------|----------------|----------------|----------------|
  E tutti pronti...         Per continuare... Dov'è come...  Che cos'è...

G|----------------|----------------|----------------|----------------|
D|----------------|----------------|----------------|----------------|
A|-2-2-2-2-2-2-2-2|-7-7-7-7-7-7-7-7|----------------|------------46--|
E|----------------|----------------|-5-5-5-5-5-5-4-0|-2-2-2-2-2-2--75|
  La verità...   La verità...   La verità...   ...un po qualcosa!

G|----------------|----------------|----------------|----------------|
D|----------------|----------------|----------------|----------------|
A|-2-2-2-2-2-2-2-2|-7-7-7-7-7-7-7-7|---------4-4-4-4|-5-5-5-5-5-5-5-0|
E|----------------|----------------|-5-5-5-5--------|----------------|
  La verità...   La verità...   La verità...   ...una migliore

G|----------------|----------------|----------------|----------------|----------------|----------------|
D|----------------|----------------|----------------|----------------|----------------|----------------|
A|----------------|-5-5-5-5-5-5-5-0|-2-2-2-2-2-2-2-2|-7-7-7-7-7-7-7-7|----------------|------------46--|
E|-2-2-2-2-2-2-2-0|----------------|----------------|----------------|-5-5-5-5-5-5-4-0|-2-2-2-2-2-2--75|
     ...può essere un errore  La verità...   La verità...     ...mai di scuse

G|----------------|----------------|----------------|----------------|
D|----------------|----------------|----------------|----------------|
A|-2-2-2-2-2-2-2-2|-7-7-7-7-7-7-7-7|---------4-4-4-4|-5-5-5-5-5-5-5-0|
E|----------------|----------------|-5-5-5-5--------|----------------|
  La verità...   La verità...        ...mai di rosa

G|----------------|----------------|----------------|----------------|----------------|
D|----------------|----------------|----------------|----------------|----------------|
A|----------------|-5-5-5-5-5-5-5-0|-4-4-4-4-4-4-4-4|----------------|-5-5-5-5-5-5-5-0|
E|-2-2-2-2-2-2-2-2|----------------|----------------|-2-2-2-2-2-2-2-2|----------------|
        ...una cosa      ...si sposa!

G|----------------|----------------|----------------|
D|----------------|----------------|----------------|
A|----------------|-5-5-5-5-5-5-5-0|5---------------|
E|-2-2-2-2-2-2-2-2|----------------|----------------|

Almost there ...

Sign in to get your own page with links to favourite songs and more. You are just one click away...

Login with Facebook Login with Google