Log in

One click and you are in

Login with Facebook Login with Google

Why sign up and log in

Guitar Tabs Explorer
Vasco Rossi bass tabs for Albachiara

Bass tabs

-------------------------------------------------------------------------------
               ALBACHIARA - Vasco Rossi
-------------------------------------------------------------------------------
Artista: Vasco Rossi
Canzone: Albachiara
Accordatura Standard E(mi) A(la) D(re) G(sol)

 Per qualsiasi considerazione mi trovate su Fb (Danko Cardi)
Il basso entra a 0:32

|--5----4--|--2----0--|----------|-----------|--765--|
|----------|----------|--3--5----|------765--|-------|
|----------|----------|-------3--|--3-5------|-------| X2
|----------|----------|----------|-----------|-------|


(1:14)
|-------------|-----------|
|-------------|--0000-24--|
|--55555-432--|-----------|
|-------------|-----------|


|---------------|-----------|-----------|-----------|-----------|-----555--|-----777--|
|.------101010--|------999--|------777--|------555--|------333--|----------|----------|
|.--------------|-----------|-----------|-----------|-----------|--3-3-----|--5-5-----|
|--8-8----------|--7-7------|--5-5------|--3-3------|--1-1------|----------|----------|


|-------577---|
|--5-57------.|
|------------.| X 4
|-------------|

|---------|---------|---------|---------|---------|---------|-----/12--|
|---------|---------|---------|---------|---------|---------|----------|
|---------|---------|---------|---------|---------|--3------|--5-------|
|--8------|--7------|--5------|--3------|--1------|---------|----------|

(Tu sola dentro la stanza...)
|----------|-----------|
|--3--5----|------765--|
|-------3--|--3-5------|
|----------|-----------|


|---------------|-----------|-----------|-----------|-----------|-----555--|-----777--|
|.------101010--|------999--|------777--|------555--|------333--|----------|----------|
|.--------------|-----------|-----------|-----------|-----------|--3-3-----|--5-5-----|
|--8-8----------|--7-7------|--5-5------|--3-3------|--1-1------|----------|----------|


|-------577---|
|--5-57------.|
|------------.| X 5
|-------------|

|--------------|-----------|-----------|-----------|-----------|-----555--|
|------101010--|------999--|------777--|------555--|------333--|----------|
|--------------|-----------|-----------|-----------|-----------|--3-3-----|
|--8-8---------|--7-7------|--5-5------|--3-3------|--1-1------|----------|


|--------------|--------------|-------------|-----------|
|--------------|--------------|-------------|--0000-24--|
|--r--r--r--r--|--r--r--r--r--|--55555-432--|-----------|
|--------------|--------------|-------------|-----------|



| / slide up
| \ slide down
| h hammer-on
| p pull-off
| ~ vibrato
| + harmonic
| x Mute note

Almost there ...

Sign in to get your own page with links to favourite songs and more. You are just one click away...

Login with Facebook Login with Google